  0
SECTION
  2
HEADER
  9
$ACADVER
  1
AC1009
  9
$DWGCODEPAGE
  3
ansi_1252
  9
$INSBASE
 10
0.0
 20
0.0
 30
0.0
  9
$EXTMIN
 10
1.000000000000000E+20
 20
1.000000000000000E+20
 30
1.000000000000000E+20
  9
$EXTMAX
 10
-1.000000000000000E+20
 20
-1.000000000000000E+20
 30
-1.000000000000000E+20
  9
$LIMMIN
 10
0.0
 20
0.0
  9
$LIMMAX
 10
12.0
 20
9.0
  9
$ORTHOMODE
 70
     0
  9
$REGENMODE
 70
     1
  9
$FILLMODE
 70
     1
  9
$QTEXTMODE
 70
     0
  9
$MIRRTEXT
 70
     1
  9
$DRAGMODE
 70
     2
  9
$LTSCALE
 40
1.0
  9
$OSMODE
 70
    37
  9
$ATTMODE
 70
     1
  9
$TEXTSIZE
 40
0.2
  9
$TRACEWID
 40
0.05
  9
$TEXTSTYLE
  7
STANDARD
  9
$CLAYER
  8
DRAFT
  9
$CELTYPE
  6
BYLAYER
  9
$CECOLOR
 62
   256
  9
$DIMSCALE
 40
1.0
  9
$DIMASZ
 40
0.18
  9
$DIMEXO
 40
0.0625
  9
$DIMDLI
 40
0.38
  9
$DIMRND
 40
0.0
  9
$DIMDLE
 40
0.0
  9
$DIMEXE
 40
0.18
  9
$DIMTP
 40
0.0
  9
$DIMTM
 40
0.0
  9
$DIMTXT
 40
0.18
  9
$DIMCEN
 40
0.09
  9
$DIMTSZ
 40
0.0
  9
$DIMTOL
 70
     0
  9
$DIMLIM
 70
     0
  9
$DIMTIH
 70
     1
  9
$DIMTOH
 70
     1
  9
$DIMSE1
 70
     0
  9
$DIMSE2
 70
     0
  9
$DIMTAD
 70
     0
  9
$DIMZIN
 70
     0
  9
$DIMBLK
  1

  9
$DIMASO
 70
     1
  9
$DIMSHO
 70
     1
  9
$DIMPOST
  1

  9
$DIMAPOST
  1

  9
$DIMALT
 70
     0
  9
$DIMALTD
 70
     2
  9
$DIMALTF
 40
25.4
  9
$DIMLFAC
 40
1.0
  9
$DIMTOFL
 70
     0
  9
$DIMTVP
 40
0.0
  9
$DIMTIX
 70
     0
  9
$DIMSOXD
 70
     0
  9
$DIMSAH
 70
     0
  9
$DIMBLK1
  1

  9
$DIMBLK2
  1

  9
$DIMSTYLE
  2
STANDARD_ACAD
  9
$DIMCLRD
 70
     0
  9
$DIMCLRE
 70
     0
  9
$DIMCLRT
 70
     0
  9
$DIMTFAC
 40
1.0
  9
$DIMGAP
 40
0.09
  9
$LUNITS
 70
     2
  9
$LUPREC
 70
     3
  9
$SKETCHINC
 40
0.1
  9
$FILLETRAD
 40
0.5
  9
$AUNITS
 70
     0
  9
$AUPREC
 70
     0
  9
$MENU
  1
.
  9
$ELEVATION
 40
0.0
  9
$PELEVATION
 40
0.0
  9
$THICKNESS
 40
0.0
  9
$LIMCHECK
 70
     0
  9
$CHAMFERA
 40
0.0
  9
$CHAMFERB
 40
0.0
  9
$SKPOLY
 70
     0
  9
$TDCREATE
 40
2458941.649728542
  9
$TDUPDATE
 40
2458941.649749422
  9
$TDINDWG
 40
0.0000000116
  9
$TDUSRTIMER
 40
0.0000000116
  9
$USRTIMER
 70
     1
  9
$ANGBASE
 50
0.0
  9
$ANGDIR
 70
     0
  9
$PDMODE
 70
     0
  9
$PDSIZE
 40
0.0
  9
$PLINEWID
 40
0.0
  9
$COORDS
 70
     1
  9
$SPLFRAME
 70
     0
  9
$SPLINETYPE
 70
     6
  9
$SPLINESEGS
 70
     8
  9
$ATTDIA
 70
     0
  9
$ATTREQ
 70
     1
  9
$HANDLING
 70
     1
  9
$HANDSEED
  5
48E
  9
$SURFTAB1
 70
     6
  9
$SURFTAB2
 70
     6
  9
$SURFTYPE
 70
     6
  9
$SURFU
 70
     6
  9
$SURFV
 70
     6
  9
$UCSNAME
  2

  9
$UCSORG
 10
0.0
 20
0.0
 30
0.0
  9
$UCSXDIR
 10
1.0
 20
0.0
 30
0.0
  9
$UCSYDIR
 10
0.0
 20
1.0
 30
0.0
  9
$PUCSNAME
  2

  9
$PUCSORG
 10
0.0
 20
0.0
 30
0.0
  9
$PUCSXDIR
 10
1.0
 20
0.0
 30
0.0
  9
$PUCSYDIR
 10
0.0
 20
1.0
 30
0.0
  9
$USERI1
 70
     0
  9
$USERI2
 70
     0
  9
$USERI3
 70
     0
  9
$USERI4
 70
     0
  9
$USERI5
 70
     0
  9
$USERR1
 40
0.0
  9
$USERR2
 40
0.0
  9
$USERR3
 40
0.0
  9
$USERR4
 40
0.0
  9
$USERR5
 40
0.0
  9
$WORLDVIEW
 70
     1
  9
$SHADEDGE
 70
     3
  9
$SHADEDIF
 70
    70
  9
$TILEMODE
 70
     1
  9
$MAXACTVP
 70
    64
  9
$PLIMCHECK
 70
     0
  9
$PEXTMIN
 10
1.000000000000000E+20
 20
1.000000000000000E+20
 30
1.000000000000000E+20
  9
$PEXTMAX
 10
-1.000000000000000E+20
 20
-1.000000000000000E+20
 30
-1.000000000000000E+20
  9
$PLIMMIN
 10
0.0
 20
0.0
  9
$PLIMMAX
 10
12.0
 20
9.0
  9
$UNITMODE
 70
     0
  9
$VISRETAIN
 70
     1
  9
$PLINEGEN
 70
     0
  9
$PSLTSCALE
 70
     1
  0
ENDSEC
  0
SECTION
  2
TABLES
  0
TABLE
  2
VPORT
 70
     1
  0
VPORT
  2
*ACTIVE
 70
     0
 10
0.0
 20
0.0
 11
1.0
 21
1.0
 12
10.42990654205607
 22
4.5
 13
0.0
 23
0.0
 14
0.5
 24
0.5
 15
0.5
 25
0.5
 16
0.0
 26
0.0
 36
1.0
 17
0.0
 27
0.0
 37
0.0
 40
9.0
 41
1.972972972850329
 42
50.0
 43
0.0
 44
0.0
 50
0.0
 51
0.0
 71
     0
 72
   100
 73
     1
 74
     3
 75
     0
 76
     0
 77
     0
 78
     0
  0
ENDTAB
  0
TABLE
  2
LTYPE
 70
     1
  0
LTYPE
  2
CONTINUOUS
 70
     0
  3
Solid line
 72
    65
 73
     0
 40
0.0
  0
ENDTAB
  0
TABLE
  2
LAYER
 70
     2
  0
LAYER
  2
0
 70
     0
 62
     7
  6
CONTINUOUS
  0
LAYER
  2
DRAFT
 70
     0
 62
    30
  6
CONTINUOUS
  0
ENDTAB
  0
TABLE
  2
STYLE
 70
     1
  0
STYLE
  2
STANDARD
 70
     0
 40
0.0
 41
1.0
 50
0.0
 71
     0
 42
0.2
  3
txt
  4

  0
ENDTAB
  0
TABLE
  2
VIEW
 70
     0
  0
ENDTAB
  0
TABLE
  2
UCS
 70
     0
  0
ENDTAB
  0
TABLE
  2
APPID
 70
     1
  0
APPID
  2
ACAD
 70
     0
  0
ENDTAB
  0
TABLE
  2
DIMSTYLE
 70
     1
  0
DIMSTYLE
  2
STANDARD_ACAD
 70
     0
  3

  4

  5

  6

  7

 40
1.0
 41
0.18
 42
0.0625
 43
0.38
 44
0.18
 45
0.0
 46
0.0
 47
0.0
 48
0.0
140
0.18
141
0.09
142
0.0
143
25.4
144
1.0
145
0.0
146
1.0
147
0.09
 71
     0
 72
     0
 73
     1
 74
     1
 75
     0
 76
     0
 77
     0
 78
     0
170
     0
171
     2
172
     0
173
     0
174
     0
175
     0
176
     0
177
     0
178
     0
  0
ENDTAB
  0
ENDSEC
  0
SECTION
  2
BLOCKS
  0
BLOCK
  8
0
  2
$MODEL_SPACE
 70
     0
 10
0.0
 20
0.0
 30
0.0
  3
$MODEL_SPACE
  1

  0
ENDBLK
  5
21
  8
0
  0
BLOCK
 67
     1
  8
0
  2
$PAPER_SPACE
 70
     0
 10
0.0
 20
0.0
 30
0.0
  3
$PAPER_SPACE
  1

  0
ENDBLK
  5
1D
 67
     1
  8
0
  0
ENDSEC
  0
SECTION
  2
ENTITIES
  0
POLYLINE
  5
6F
  8
DRAFT
 66
     1
 10
0.0
 20
0.0
 30
0.0
  0
VERTEX
  5
70
  8
DRAFT
 10
-715.9638686852767
 20
-178.8100517590477
 30
0.0
 42
0.336951192279461
  0
VERTEX
  5
71
  8
DRAFT
 10
-714.6819703372354
 20
-177.12381951803
 30
0.0
  0
VERTEX
  5
72
  8
DRAFT
 10
-714.6819703372362
 20
-172.6873756765845
 30
0.0
 42
-0.3889014466556704
  0
VERTEX
  5
73
  8
DRAFT
 10
-713.0843552965104
 20
-170.9440229227827
 30
0.0
  0
VERTEX
  5
74
  8
DRAFT
 10
-711.3263050671762
 20
-170.7903532698599
 30
0.0
 42
-0.0436214070617927
  0
VERTEX
  5
75
  8
DRAFT
 10
-706.9608456608946
 20
-170.7903532698594
 30
0.0
  0
VERTEX
  5
76
  8
DRAFT
 10
-705.2027954315604
 20
-170.944022922782
 30
0.0
 42
-0.3889014484598292
  0
VERTEX
  5
77
  8
DRAFT
 10
-703.6051803908339
 20
-172.6873756765829
 30
0.0
  0
VERTEX
  5
78
  8
DRAFT
 10
-703.6051803908349
 20
-177.1238195180284
 30
0.0
 42
0.388901446655665
  0
VERTEX
  5
79
  8
DRAFT
 10
-702.007565350109
 20
-178.8671722718302
 30
0.0
  0
VERTEX
  5
7A
  8
DRAFT
 10
-700.249515120775
 20
-179.0208419247531
 30
0.0
 42
0.0436214070618493
  0
VERTEX
  5
7B
  8
DRAFT
 10
-695.8840557144933
 20
-179.0208419247536
 30
0.0
  0
VERTEX
  5
7C
  8
DRAFT
 10
-694.126005485159
 20
-178.8671722718311
 30
0.0
 42
0.3889014466554176
  0
VERTEX
  5
7D
  8
DRAFT
 10
-692.5283904444331
 20
-177.1238195180294
 30
0.0
  0
VERTEX
  5
7E
  8
DRAFT
 10
-692.5283904444331
 20
-172.687375676584
 30
0.0
 42
-0.3369511295610879
  0
VERTEX
  5
7F
  8
DRAFT
 10
-691.2464918947637
 20
-171.0011431315538
 30
0.0
 42
0.1738216956280075
  0
VERTEX
  5
80
  8
DRAFT
 10
-691.1775860995891
 20
-170.9524697527428
 30
0.0
  0
VERTEX
  5
81
  8
DRAFT
 10
-690.9100095435748
 20
-170.5709266799419
 30
0.0
 42
-0.2214558604949199
  0
VERTEX
  5
82
  8
DRAFT
 10
-690.8642971492884
 20
-170.5445514688424
 30
0.0
  0
VERTEX
  5
83
  8
DRAFT
 10
-690.8194318521831
 20
-170.5406181841836
 30
0.0
 42
0.1622776624744971
  0
VERTEX
  5
84
  8
DRAFT
 10
-690.7831668075503
 20
-170.5248909282309
 30
0.0
  0
VERTEX
  5
85
  8
DRAFT
 10
-690.7754111487695
 20
-170.5179370250783
 30
0.0
 42
-1.989253265119707
  0
VERTEX
  5
86
  8
DRAFT
 10
-690.7662520508128
 20
-170.6174698655341
 30
0.0
  0
VERTEX
  5
87
  8
DRAFT
 10
-690.7753920491928
 20
-170.6118539428569
 30
0.0
 42
0.1609716664690466
  0
VERTEX
  5
88
  8
DRAFT
 10
-690.8135697618706
 20
-170.6028439838738
 30
0.0
  0
VERTEX
  5
89
  8
DRAFT
 10
-690.8323661203309
 20
-170.6044918371845
 30
0.0
 42
0.2261705714036455
  0
VERTEX
  5
8A
  8
DRAFT
 10
-690.8787147115528
 20
-170.631791771672
 30
0.0
  0
VERTEX
  5
8B
  8
DRAFT
 10
-690.9527411294019
 20
-170.7414869929823
 30
0.0
 42
0.6310043784592212
  0
VERTEX
  5
8C
  8
DRAFT
 10
-690.8382425844908
 20
-170.9359347089331
 30
0.0
  0
VERTEX
  5
8D
  8
DRAFT
 10
-690.2538716333534
 20
-170.8848553485478
 30
0.0
 42
0.2215234308515169
  0
VERTEX
  5
8E
  8
DRAFT
 10
-690.1624147622091
 20
-170.8321021178747
 30
0.0
  0
VERTEX
  5
8F
  8
DRAFT
 10
-689.9182876315501
 20
-170.4839948995081
 30
0.0
 42
-0.2214558604996527
  0
VERTEX
  5
90
  8
DRAFT
 10
-689.8725752372637
 20
-170.4576196884086
 30
0.0
  0
VERTEX
  5
91
  8
DRAFT
 10
-689.8277099401586
 20
-170.45368640375
 30
0.0
 42
0.1622776624664196
  0
VERTEX
  5
92
  8
DRAFT
 10
-689.7914448955257
 20
-170.4379591477972
 30
0.0
  0
VERTEX
  5
93
  8
DRAFT
 10
-689.7836892367451
 20
-170.4310052446447
 30
0.0
 42
-1.989253265109805
  0
VERTEX
  5
94
  8
DRAFT
 10
-689.7745301387882
 20
-170.5305380851002
 30
0.0
  0
VERTEX
  5
95
  8
DRAFT
 10
-689.7836701371684
 20
-170.5249221624233
 30
0.0
 42
0.1609716664705109
  0
VERTEX
  5
96
  8
DRAFT
 10
-689.8218478498458
 20
-170.5159122034401
 30
0.0
  0
VERTEX
  5
97
  8
DRAFT
 10
-689.8406442083063
 20
-170.5175600567508
 30
0.0
 42
0.2261705714088665
  0
VERTEX
  5
98
  8
DRAFT
 10
-689.8869927995281
 20
-170.5448599912383
 30
0.0
  0
VERTEX
  5
99
  8
DRAFT
 10
-689.9611957943671
 20
-170.6548168711911
 30
0.0
 42
0.631004378460988
  0
VERTEX
  5
9A
  8
DRAFT
 10
-689.846697249456
 20
-170.8492645871417
 30
0.0
  0
VERTEX
  5
9B
  8
DRAFT
 10
-689.5899373388143
 20
-170.8268214249986
 30
0.0
 42
0.4142489508363144
  0
VERTEX
  5
9C
  8
DRAFT
 10
-689.2490196166056
 20
-170.4205467790445
 30
0.0
  0
VERTEX
  5
9D
  8
DRAFT
 10
-689.3144475330424
 20
-169.6730629896403
 30
0.0
 42
0.4141732650322373
  0
VERTEX
  5
9E
  8
DRAFT
 10
-689.7206668325277
 20
-169.3321859080546
 30
0.0
  0
VERTEX
  5
9F
  8
DRAFT
 10
-689.9773520178433
 20
-169.3546182027282
 30
0.0
 42
0.6310947064867108
  0
VERTEX
  5
A0
  8
DRAFT
 10
-690.0563600458494
 20
-169.5660037196844
 30
0.0
  0
VERTEX
  5
A1
  8
DRAFT
 10
-689.9643370782799
 20
-169.6612372546667
 30
0.0
 42
0.2261705714074146
  0
VERTEX
  5
A2
  8
DRAFT
 10
-689.9139504641154
 20
-169.6800698711677
 30
0.0
  0
VERTEX
  5
A3
  8
DRAFT
 10
-689.8951536554404
 20
-169.6784271613482
 30
0.0
 42
0.1609716664665954
  0
VERTEX
  5
A4
  8
DRAFT
 10
-689.8591218101736
 20
-169.6629215741991
 30
0.0
  0
VERTEX
  5
A5
  8
DRAFT
 10
-689.8510964601272
 20
-169.65580315341
 30
0.0
 42
-2.022848026527944
  0
VERTEX
  5
A6
  8
DRAFT
 10
-689.8428243672454
 20
-169.7554136342032
 30
0.0
  0
VERTEX
  5
A7
  8
DRAFT
 10
-689.8516701937368
 20
-169.749912873723
 30
0.0
 42
0.1622776624665707
  0
VERTEX
  5
A8
  8
DRAFT
 10
-689.8901160702409
 20
-169.7407251306993
 30
0.0
  0
VERTEX
  5
A9
  8
DRAFT
 10
-689.9349824419693
 20
-169.7446461382854
 30
0.0
 42
-0.2214558604912084
  0
VERTEX
  5
AA
  8
DRAFT
 10
-689.9845818808757
 20
-169.7266136561469
 30
0.0
  0
VERTEX
  5
AB
  8
DRAFT
 10
-690.2854114563032
 20
-169.4262743856717
 30
0.0
 42
0.2214556596412517
  0
VERTEX
  5
AC
  8
DRAFT
 10
-690.3846102387485
 20
-169.3902094130599
 30
0.0
  0
VERTEX
  5
AD
  8
DRAFT
 10
-690.9691064303092
 20
-169.4412898475955
 30
0.0
 42
0.6310947064841088
  0
VERTEX
  5
AE
  8
DRAFT
 10
-691.0481144583157
 20
-169.6526753645516
 30
0.0
  0
VERTEX
  5
AF
  8
DRAFT
 10
-690.9560807909633
 20
-169.7479199726189
 30
0.0
 42
0.2261705714087473
  0
VERTEX
  5
B0
  8
DRAFT
 10
-690.905694176799
 20
-169.76675258912
 30
0.0
  0
VERTEX
  5
B1
  8
DRAFT
 10
-690.8868973681239
 20
-169.7651098793005
 30
0.0
 42
0.1609716664673287
  0
VERTEX
  5
B2
  8
DRAFT
 10
-690.8508655228571
 20
-169.7496042921513
 30
0.0
  0
VERTEX
  5
B3
  8
DRAFT
 10
-690.8428401728107
 20
-169.7424858713621
 30
0.0
 42
-2.022848026577196
  0
VERTEX
  5
B4
  8
DRAFT
 10
-690.8345680799293
 20
-169.8420963521556
 30
0.0
  0
VERTEX
  5
B5
  8
DRAFT
 10
-690.8434139064204
 20
-169.8365955916751
 30
0.0
 42
0.1622776624671066
  0
VERTEX
  5
B6
  8
DRAFT
 10
-690.8818597829244
 20
-169.8274078486515
 30
0.0
  0
VERTEX
  5
B7
  8
DRAFT
 10
-690.9267261546528
 20
-169.8313288562376
 30
0.0
 42
-0.2214558604926705
  0
VERTEX
  5
B8
  8
DRAFT
 10
-690.9763255935591
 20
-169.813296374099
 30
0.0
  0
VERTEX
  5
B9
  8
DRAFT
 10
-691.2771672466131
 20
-169.5129459985903
 30
0.0
 42
0.2214552436165095
  0
VERTEX
  5
BA
  8
DRAFT
 10
-691.3763658887316
 20
-169.4768811660766
 30
0.0
  0
VERTEX
  5
BB
  8
DRAFT
 10
-695.8841201901105
 20
-169.8708419247532
 30
0.0
 42
-0.0436214061426226
  0
VERTEX
  5
BC
  8
DRAFT
 10
-700.249450645156
 20
-169.8708419247528
 30
0.0
  0
VERTEX
  5
BD
  8
DRAFT
 10
-704.757204946535
 20
-169.4768811660753
 30
0.0
 42
0.2214552436137343
  0
VERTEX
  5
BE
  8
DRAFT
 10
-704.8564035886536
 20
-169.5129459985889
 30
0.0
  0
VERTEX
  5
BF
  8
DRAFT
 10
-705.1572452417076
 20
-169.8132963740974
 30
0.0
 42
-0.2214558604954573
  0
VERTEX
  5
C0
  8
DRAFT
 10
-705.2068446806138
 20
-169.8313288562362
 30
0.0
  0
VERTEX
  5
C1
  8
DRAFT
 10
-705.2517110523422
 20
-169.82740784865
 30
0.0
 42
0.1622776624627737
  0
VERTEX
  5
C2
  8
DRAFT
 10
-705.2901569288463
 20
-169.8365955916736
 30
0.0
  0
VERTEX
  5
C3
  8
DRAFT
 10
-705.2990027553373
 20
-169.8420963521541
 30
0.0
 42
-1.989253265114278
  0
VERTEX
  5
C4
  8
DRAFT
 10
-705.2907306624555
 20
-169.7424858713604
 30
0.0
  0
VERTEX
  5
C5
  8
DRAFT
 10
-705.2827053124095
 20
-169.7496042921498
 30
0.0
 42
0.1609716664683417
  0
VERTEX
  5
C6
  8
DRAFT
 10
-705.2466734671427
 20
-169.765109879299
 30
0.0
  0
VERTEX
  5
C7
  8
DRAFT
 10
-705.2278766584676
 20
-169.7667525891186
 30
0.0
 42
0.2261705714047928
  0
VERTEX
  5
C8
  8
DRAFT
 10
-705.1774900443033
 20
-169.7479199726174
 30
0.0
  0
VERTEX
  5
C9
  8
DRAFT
 10
-705.0854563769509
 20
-169.65267536455
 30
0.0
 42
0.6310947064870687
  0
VERTEX
  5
CA
  8
DRAFT
 10
-705.1644644049574
 20
-169.441289847594
 30
0.0
  0
VERTEX
  5
CB
  8
DRAFT
 10
-705.7489605965181
 20
-169.3902094130584
 30
0.0
 42
0.2214556596444585
  0
VERTEX
  5
CC
  8
DRAFT
 10
-705.8481593789634
 20
-169.4262743856702
 30
0.0
  0
VERTEX
  5
CD
  8
DRAFT
 10
-706.148988954391
 20
-169.726613656145
 30
0.0
 42
-0.2214558604920423
  0
VERTEX
  5
CE
  8
DRAFT
 10
-706.1985883932973
 20
-169.7446461382838
 30
0.0
  0
VERTEX
  5
CF
  8
DRAFT
 10
-706.2434547650256
 20
-169.7407251306976
 30
0.0
 42
0.1622776624627856
  0
VERTEX
  5
D0
  8
DRAFT
 10
-706.2819006415298
 20
-169.7499128737213
 30
0.0
  0
VERTEX
  5
D1
  8
DRAFT
 10
-706.290746468021
 20
-169.7554136342017
 30
0.0
 42
-1.989253265126097
  0
VERTEX
  5
D2
  8
DRAFT
 10
-706.2824743751394
 20
-169.6558031534082
 30
0.0
  0
VERTEX
  5
D3
  8
DRAFT
 10
-706.2744490250928
 20
-169.6629215741974
 30
0.0
 42
0.1609716664712647
  0
VERTEX
  5
D4
  8
DRAFT
 10
-706.2384171798262
 20
-169.6784271613466
 30
0.0
  0
VERTEX
  5
D5
  8
DRAFT
 10
-706.2196203711512
 20
-169.6800698711662
 30
0.0
 42
0.2261705714078095
  0
VERTEX
  5
D6
  8
DRAFT
 10
-706.1692337569867
 20
-169.661237254665
 30
0.0
  0
VERTEX
  5
D7
  8
DRAFT
 10
-706.0772107894172
 20
-169.5660037196827
 30
0.0
 42
0.6310947064879167
  0
VERTEX
  5
D8
  8
DRAFT
 10
-706.1562188174233
 20
-169.3546182027265
 30
0.0
  0
VERTEX
  5
D9
  8
DRAFT
 10
-706.4129040027389
 20
-169.3321859080528
 30
0.0
 42
0.4141732650317854
  0
VERTEX
  5
DA
  8
DRAFT
 10
-706.8191233022242
 20
-169.6730629896386
 30
0.0
  0
VERTEX
  5
DB
  8
DRAFT
 10
-706.884551218661
 20
-170.4205467790428
 30
0.0
 42
0.4142489508368734
  0
VERTEX
  5
DC
  8
DRAFT
 10
-706.5436334964526
 20
-170.826821424997
 30
0.0
  0
SEQEND
  5
DD
  8
DRAFT
  0
POLYLINE
  5
DE
  8
DRAFT
 66
     1
 10
0.0
 20
0.0
 30
0.0
  0
VERTEX
  5
DF
  8
DRAFT
 10
-700.6667272852155
 20
-178.9843737696142
 30
0.0
 42
-0.4142489508365226
  0
VERTEX
  5
E0
  8
DRAFT
 10
-700.3258095630067
 20
-179.3906484155683
 30
0.0
  0
VERTEX
  5
E1
  8
DRAFT
 10
-700.3912374794437
 20
-180.1381322049725
 30
0.0
 42
-0.4141732650322296
  0
VERTEX
  5
E2
  8
DRAFT
 10
-700.797456778929
 20
-180.4790092865582
 30
0.0
  0
VERTEX
  5
E3
  8
DRAFT
 10
-701.0541419642445
 20
-180.4565769918847
 30
0.0
 42
-0.6310947064860885
  0
VERTEX
  5
E4
  8
DRAFT
 10
-701.1331499922505
 20
-180.2451914749285
 30
0.0
  0
VERTEX
  5
E5
  8
DRAFT
 10
-701.041127024681
 20
-180.1499579399461
 30
0.0
 42
-0.2261705714034655
  0
VERTEX
  5
E6
  8
DRAFT
 10
-700.9907404105167
 20
-180.131125323445
 30
0.0
  0
VERTEX
  5
E7
  8
DRAFT
 10
-700.9719436018416
 20
-180.1327680332646
 30
0.0
 42
-0.160971666466883
  0
VERTEX
  5
E8
  8
DRAFT
 10
-700.9359117565749
 20
-180.1482736204137
 30
0.0
  0
VERTEX
  5
E9
  8
DRAFT
 10
-700.9278864065285
 20
-180.1553920412029
 30
0.0
 42
2.022848026577219
  0
VERTEX
  5
EA
  8
DRAFT
 10
-700.9196143136468
 20
-180.0557815604094
 30
0.0
  0
VERTEX
  5
EB
  8
DRAFT
 10
-700.9284601401381
 20
-180.0612823208899
 30
0.0
 42
-0.1622776624726827
  0
VERTEX
  5
EC
  8
DRAFT
 10
-700.9669060166422
 20
-180.0704700639135
 30
0.0
  0
VERTEX
  5
ED
  8
DRAFT
 10
-701.0117723883706
 20
-180.0665490563275
 30
0.0
 42
0.2214558604859402
  0
VERTEX
  5
EE
  8
DRAFT
 10
-701.0613718272767
 20
-180.0845815384661
 30
0.0
  0
VERTEX
  5
EF
  8
DRAFT
 10
-701.3622014027045
 20
-180.3849208089412
 30
0.0
 42
-0.2214556596416718
  0
VERTEX
  5
F0
  8
DRAFT
 10
-701.4614001851497
 20
-180.4209857815527
 30
0.0
  0
VERTEX
  5
F1
  8
DRAFT
 10
-702.0458963767105
 20
-180.3699053470173
 30
0.0
 42
-0.6310947064820812
  0
VERTEX
  5
F2
  8
DRAFT
 10
-702.1249044047171
 20
-180.1585198300612
 30
0.0
  0
VERTEX
  5
F3
  8
DRAFT
 10
-702.0328707373645
 20
-180.063275221994
 30
0.0
 42
-0.2261705714047308
  0
VERTEX
  5
F4
  8
DRAFT
 10
-701.9824841232002
 20
-180.0444426054927
 30
0.0
  0
VERTEX
  5
F5
  8
DRAFT
 10
-701.9636873145251
 20
-180.0460853153124
 30
0.0
 42
-0.1609716664696468
  0
VERTEX
  5
F6
  8
DRAFT
 10
-701.9276554692584
 20
-180.0615909024616
 30
0.0
  0
VERTEX
  5
F7
  8
DRAFT
 10
-701.919630119212
 20
-180.0687093232508
 30
0.0
 42
2.022848026560459
  0
VERTEX
  5
F8
  8
DRAFT
 10
-701.9113580263305
 20
-179.969098842457
 30
0.0
  0
VERTEX
  5
F9
  8
DRAFT
 10
-701.9202038528217
 20
-179.9745996029377
 30
0.0
 42
-0.1622776624708167
  0
VERTEX
  5
FA
  8
DRAFT
 10
-701.9586497293255
 20
-179.9837873459615
 30
0.0
  0
VERTEX
  5
FB
  8
DRAFT
 10
-702.003516101054
 20
-179.9798663383752
 30
0.0
 42
0.2214558604909528
  0
VERTEX
  5
FC
  8
DRAFT
 10
-702.0531155399602
 20
-179.997898820514
 30
0.0
  0
VERTEX
  5
FD
  8
DRAFT
 10
-702.3539571930144
 20
-180.2982491960225
 30
0.0
 42
-0.2214552436183203
  0
VERTEX
  5
FE
  8
DRAFT
 10
-702.4531558351329
 20
-180.3343140285361
 30
0.0
  0
VERTEX
  5
FF
  8
DRAFT
 10
-706.9609101365118
 20
-179.9403532698597
 30
0.0
 42
0.0436214061426795
  0
VERTEX
  5
100
  8
DRAFT
 10
-711.3262405915573
 20
-179.9403532698602
 30
0.0
  0
VERTEX
  5
101
  8
DRAFT
 10
-715.8339948929362
 20
-180.3343140285376
 30
0.0
 42
-0.2214552436139524
  0
VERTEX
  5
102
  8
DRAFT
 10
-715.9331935350547
 20
-180.2982491960239
 30
0.0
  0
VERTEX
  5
103
  8
DRAFT
 10
-716.2340351881088
 20
-179.9978988205154
 30
0.0
 42
0.2214558604888652
  0
VERTEX
  5
104
  8
DRAFT
 10
-716.2836346270151
 20
-179.9798663383767
 30
0.0
  0
VERTEX
  5
105
  8
DRAFT
 10
-716.3285009987435
 20
-179.9837873459629
 30
0.0
 42
-0.1622776624735721
  0
VERTEX
  5
106
  8
DRAFT
 10
-716.3669468752473
 20
-179.9745996029392
 30
0.0
  0
VERTEX
  5
107
  8
DRAFT
 10
-716.3757927017385
 20
-179.9690988424587
 30
0.0
 42
1.98925326507927
  0
VERTEX
  5
108
  8
DRAFT
 10
-716.3675206088571
 20
-180.0687093232522
 30
0.0
  0
VERTEX
  5
109
  8
DRAFT
 10
-716.3594952588107
 20
-180.0615909024631
 30
0.0
 42
-0.1609716664674346
  0
VERTEX
  5
10A
  8
DRAFT
 10
-716.323463413544
 20
-180.0460853153139
 30
0.0
  0
VERTEX
  5
10B
  8
DRAFT
 10
-716.3046666048689
 20
-180.0444426054942
 30
0.0
 42
-0.2261705714007997
  0
VERTEX
  5
10C
  8
DRAFT
 10
-716.2542799907047
 20
-180.0632752219955
 30
0.0
  0
VERTEX
  5
10D
  8
DRAFT
 10
-716.1622463233522
 20
-180.1585198300628
 30
0.0
 42
-0.6310947064840664
  0
VERTEX
  5
10E
  8
DRAFT
 10
-716.2412543513586
 20
-180.3699053470189
 30
0.0
  0
VERTEX
  5
10F
  8
DRAFT
 10
-716.8257505429194
 20
-180.4209857815544
 30
0.0
 42
-0.2214556596465307
  0
VERTEX
  5
110
  8
DRAFT
 10
-716.9249493253645
 20
-180.3849208089426
 30
0.0
  0
VERTEX
  5
111
  8
DRAFT
 10
-717.2257789007923
 20
-180.0845815384678
 30
0.0
 42
0.2214558604913286
  0
VERTEX
  5
112
  8
DRAFT
 10
-717.2753783396985
 20
-180.0665490563292
 30
0.0
  0
VERTEX
  5
113
  8
DRAFT
 10
-717.3202447114269
 20
-180.0704700639152
 30
0.0
 42
-0.1622776624667574
  0
VERTEX
  5
114
  8
DRAFT
 10
-717.358690587931
 20
-180.0612823208915
 30
0.0
  0
VERTEX
  5
115
  8
DRAFT
 10
-717.3675364144223
 20
-180.0557815604111
 30
0.0
 42
1.989253265105742
  0
VERTEX
  5
116
  8
DRAFT
 10
-717.3592643215406
 20
-180.1553920412046
 30
0.0
  0
VERTEX
  5
117
  8
DRAFT
 10
-717.3512389714941
 20
-180.1482736204154
 30
0.0
 42
-0.1609716664689033
  0
VERTEX
  5
118
  8
DRAFT
 10
-717.3152071262275
 20
-180.1327680332661
 30
0.0
  0
VERTEX
  5
119
  8
DRAFT
 10
-717.2964103175524
 20
-180.1311253234466
 30
0.0
 42
-0.2261705714007518
  0
VERTEX
  5
11A
  8
DRAFT
 10
-717.246023703388
 20
-180.1499579399479
 30
0.0
  0
VERTEX
  5
11B
  8
DRAFT
 10
-717.1540007358185
 20
-180.2451914749301
 30
0.0
 42
-0.6310947064843478
  0
VERTEX
  5
11C
  8
DRAFT
 10
-717.2330087638246
 20
-180.4565769918863
 30
0.0
  0
VERTEX
  5
11D
  8
DRAFT
 10
-717.48969394914
 20
-180.47900928656
 30
0.0
 42
-0.4141732650317454
  0
VERTEX
  5
11E
  8
DRAFT
 10
-717.8959132486253
 20
-180.1381322049743
 30
0.0
  0
VERTEX
  5
11F
  8
DRAFT
 10
-717.9613411650623
 20
-179.39064841557
 30
0.0
 42
-0.4142489508367748
  0
VERTEX
  5
120
  8
DRAFT
 10
-717.6204234428538
 20
-178.984373769616
 30
0.0
  0
VERTEX
  5
121
  8
DRAFT
 10
-717.363663532212
 20
-178.9619306074727
 30
0.0
 42
-0.6310043784648429
  0
VERTEX
  5
122
  8
DRAFT
 10
-717.2491649873009
 20
-179.1563783234235
 30
0.0
  0
VERTEX
  5
123
  8
DRAFT
 10
-717.3233679821398
 20
-179.2663352033763
 30
0.0
 42
-0.2261705714000296
  0
VERTEX
  5
124
  8
DRAFT
 10
-717.3697165733615
 20
-179.2936351378638
 30
0.0
  0
VERTEX
  5
125
  8
DRAFT
 10
-717.388512931822
 20
-179.2952829911746
 30
0.0
 42
-0.1609716664672753
  0
VERTEX
  5
126
  8
DRAFT
 10
-717.4266906444994
 20
-179.2862730321914
 30
0.0
  0
VERTEX
  5
127
  8
DRAFT
 10
-717.4358306428792
 20
-179.2806571095143
 30
0.0
 42
2.022848026529426
  0
VERTEX
  5
128
  8
DRAFT
 10
-717.4266715449229
 20
-179.3801899499699
 30
0.0
  0
VERTEX
  5
129
  8
DRAFT
 10
-717.4189158861423
 20
-179.3732360468174
 30
0.0
 42
-0.1622776624736674
  0
VERTEX
  5
12A
  8
DRAFT
 10
-717.3826508415091
 20
-179.3575087908647
 30
0.0
  0
VERTEX
  5
12B
  8
DRAFT
 10
-717.3377855444041
 20
-179.353575506206
 30
0.0
 42
0.2214558604989919
  0
VERTEX
  5
12C
  8
DRAFT
 10
-717.2920731501175
 20
-179.3272002951066
 30
0.0
  0
VERTEX
  5
12D
  8
DRAFT
 10
-717.0479460194587
 20
-178.9790930767401
 30
0.0
 42
-0.2215234308489664
  0
VERTEX
  5
12E
  8
DRAFT
 10
-716.9564891483145
 20
-178.9263398460668
 30
0.0
  0
VERTEX
  5
12F
  8
DRAFT
 10
-716.3721181971771
 20
-178.8752604856814
 30
0.0
 42
-0.6310043784608252
  0
VERTEX
  5
130
  8
DRAFT
 10
-716.2576196522662
 20
-179.069708201632
 30
0.0
  0
VERTEX
  5
131
  8
DRAFT
 10
-716.3316460701154
 20
-179.1794034229424
 30
0.0
 42
-0.2261705714003673
  0
VERTEX
  5
132
  8
DRAFT
 10
-716.3779946613371
 20
-179.2067033574299
 30
0.0
  0
VERTEX
  5
133
  8
DRAFT
 10
-716.3967910197977
 20
-179.2083512107407
 30
0.0
 42
-0.1609716664644917
  0
VERTEX
  5
134
  8
DRAFT
 10
-716.4349687324753
 20
-179.1993412517575
 30
0.0
  0
VERTEX
  5
135
  8
DRAFT
 10
-716.4441087308554
 20
-179.1937253290803
 30
0.0
 42
2.022848026565805
  0
VERTEX
  5
136
  8
DRAFT
 10
-716.4349496328985
 20
-179.2932581695361
 30
0.0
  0
VERTEX
  5
137
  8
DRAFT
 10
-716.4271939741178
 20
-179.2863042663835
 30
0.0
 42
-0.1622776624745119
  0
VERTEX
  5
138
  8
DRAFT
 10
-716.390928929485
 20
-179.2705770104309
 30
0.0
  0
VERTEX
  5
139
  8
DRAFT
 10
-716.3460636323797
 20
-179.2666437257721
 30
0.0
 42
0.2214558604962563
  0
VERTEX
  5
13A
  8
DRAFT
 10
-716.3003512380935
 20
-179.2402685146726
 30
0.0
  0
VERTEX
  5
13B
  8
DRAFT
 10
-716.032774682079
 20
-178.8587254418715
 30
0.0
 42
-0.1738231549397876
  0
VERTEX
  5
13C
  8
DRAFT
 10
-715.9638690885324
 20
-178.810052367073
 30
0.0
 42
0.3369513388468622
  0
VERTEX
  5
13D
  8
DRAFT
 10
-714.6819703372352
 20
-177.1238195180301
 30
0.0
  0
SEQEND
  5
13E
  8
DRAFT
  0
POLYLINE
  5
13F
  8
DRAFT
 66
     1
 10
0.0
 20
0.0
 30
0.0
  0
VERTEX
  5
140
  8
DRAFT
 10
-701.3306615797546
 20
-178.9263398460651
 30
0.0
 42
-0.2215234308513565
  0
VERTEX
  5
141
  8
DRAFT
 10
-701.2392047086105
 20
-178.9790930767383
 30
0.0
  0
VERTEX
  5
142
  8
DRAFT
 10
-700.9950775779514
 20
-179.3272002951048
 30
0.0
 42
0.22145586049838
  0
VERTEX
  5
143
  8
DRAFT
 10
-700.949365183665
 20
-179.3535755062043
 30
0.0
  0
VERTEX
  5
144
  8
DRAFT
 10
-700.9044998865598
 20
-179.357508790863
 30
0.0
 42
-0.1622776624707658
  0
VERTEX
  5
145
  8
DRAFT
 10
-700.868234841927
 20
-179.3732360468157
 30
0.0
  0
VERTEX
  5
146
  8
DRAFT
 10
-700.8604791831463
 20
-179.3801899499683
 30
0.0
 42
1.989253265129828
  0
VERTEX
  5
147
  8
DRAFT
 10
-700.8513200851896
 20
-179.2806571095127
 30
0.0
  0
VERTEX
  5
148
  8
DRAFT
 10
-700.8604600835697
 20
-179.2862730321897
 30
0.0
 42
-0.1609716664698747
  0
VERTEX
  5
149
  8
DRAFT
 10
-700.8986377962469
 20
-179.2952829911729
 30
0.0
  0
VERTEX
  5
14A
  8
DRAFT
 10
-700.9174341547076
 20
-179.2936351378622
 30
0.0
 42
-0.2261705714072879
  0
VERTEX
  5
14B
  8
DRAFT
 10
-700.9637827459294
 20
-179.2663352033746
 30
0.0
  0
VERTEX
  5
14C
  8
DRAFT
 10
-701.0379857407684
 20
-179.1563783234217
 30
0.0
 42
-0.631004378464118
  0
VERTEX
  5
14D
  8
DRAFT
 10
-700.9234871958574
 20
-178.9619306074713
 30
0.0
  0
SEQEND
  5
14E
  8
DRAFT
  0
POLYLINE
  5
14F
  8
DRAFT
 66
     1
 10
0.0
 20
0.0
 30
0.0
  0
VERTEX
  5
150
  8
DRAFT
 10
-702.3232816395373
 20
-178.8100523670718
 30
0.0
 42
-0.1738231549372435
  0
VERTEX
  5
151
  8
DRAFT
 10
-702.2543760459906
 20
-178.8587254418702
 30
0.0
  0
VERTEX
  5
152
  8
DRAFT
 10
-701.9867994899761
 20
-179.2402685146711
 30
0.0
 42
0.2214558604955028
  0
VERTEX
  5
153
  8
DRAFT
 10
-701.9410870956897
 20
-179.2666437257705
 30
0.0
  0
VERTEX
  5
154
  8
DRAFT
 10
-701.8962217985844
 20
-179.2705770104294
 30
0.0
 42
-0.1622776624791898
  0
VERTEX
  5
155
  8
DRAFT
 10
-701.8599567539516
 20
-179.286304266382
 30
0.0
  0
VERTEX
  5
156
  8
DRAFT
 10
-701.8522010951708
 20
-179.2932581695347
 30
0.0
 42
1.989253265115702
  0
VERTEX
  5
157
  8
DRAFT
 10
-701.8430419972143
 20
-179.1937253290788
 30
0.0
  0
VERTEX
  5
158
  8
DRAFT
 10
-701.852181995594
 20
-179.1993412517561
 30
0.0
 42
-0.1609716664664454
  0
VERTEX
  5
159
  8
DRAFT
 10
-701.8903597082718
 20
-179.2083512107392
 30
0.0
  0
VERTEX
  5
15A
  8
DRAFT
 10
-701.9091560667323
 20
-179.2067033574285
 30
0.0
 42
-0.2261705714019236
  0
VERTEX
  5
15B
  8
DRAFT
 10
-701.9555046579541
 20
-179.1794034229409
 30
0.0
  0
VERTEX
  5
15C
  8
DRAFT
 10
-702.0295310758032
 20
-179.0697082016306
 30
0.0
 42
-0.6310043784630233
  0
VERTEX
  5
15D
  8
DRAFT
 10
-701.9150325308921
 20
-178.8752604856798
 30
0.0
  0
SEQEND
  5
15E
  8
DRAFT
  0
POLYLINE
  5
15F
  8
DRAFT
 66
     1
 10
0.0
 20
0.0
 30
0.0
 70
     1
  0
VERTEX
  5
160
  8
DRAFT
 10
-715.4173531583526
 20
-179.8282919562963
 30
0.0
 42
-0.4142135623611803
  0
VERTEX
  5
161
  8
DRAFT
 10
-715.4457592072023
 20
-179.8621478477887
 30
0.0
  0
VERTEX
  5
162
  8
DRAFT
 10
-715.8632078017299
 20
-179.8986874920547
 30
0.0
 42
-0.4142135623810972
  0
VERTEX
  5
163
  8
DRAFT
 10
-715.8970636932224
 20
-179.8702814432047
 30
0.0
  0
VERTEX
  5
164
  8
DRAFT
 10
-715.9445151525953
 20
-179.3281703903653
 30
0.0
 42
-0.4142135623829402
  0
VERTEX
  5
165
  8
DRAFT
 10
-715.9161091037454
 20
-179.294314498873
 30
0.0
  0
VERTEX
  5
166
  8
DRAFT
 10
-715.4986605092178
 20
-179.2577748546069
 30
0.0
 42
-0.4142135623604917
  0
VERTEX
  5
167
  8
DRAFT
 10
-715.4648046177255
 20
-179.2861809034572
 30
0.0
  0
SEQEND
  5
168
  8
DRAFT
  0
POLYLINE
  5
169
  8
DRAFT
 66
     1
 10
0.0
 20
0.0
 30
0.0
  0
VERTEX
  5
16A
  8
DRAFT
 10
-714.2976322528754
 20
-179.1608791549001
 30
0.0
  0
VERTEX
  5
16B
  8
DRAFT
 10
-714.3130732727556
 20
-178.9843874900614
 30
0.0
  0
VERTEX
  5
16C
  8
DRAFT
 10
-714.2488859477207
 20
-179.7180519723828
 30
0.0
 42
-0.414213533089149
  0
VERTEX
  5
16D
  8
DRAFT
 10
-714.277293411962
 20
-179.7519066733865
 30
0.0
  0
VERTEX
  5
16E
  8
DRAFT
 10
-714.8033351948291
 20
-179.7979294189376
 30
0.0
 42
-0.4142135777876478
  0
VERTEX
  5
16F
  8
DRAFT
 10
-714.8371898990895
 20
-179.7695219533307
 30
0.0
  0
VERTEX
  5
170
  8
DRAFT
 10
-714.9013772591719
 20
-179.0358574708324
 30
0.0
 42
-1.000000000001814
  0
VERTEX
  5
171
  8
DRAFT
 10
-714.8615294712478
 20
-179.0323712411226
 30
0.0
  0
VERTEX
  5
172
  8
DRAFT
 10
-714.8488120410785
 20
-179.1777317982593
 30
0.0
 42
0.4142135183907479
  0
VERTEX
  5
173
  8
DRAFT
 10
-714.8149573387956
 20
-179.2061392592515
 30
0.0
  0
VERTEX
  5
174
  8
DRAFT
 10
-714.3686111234275
 20
-179.167089002985
 30
0.0
 42
0.4142135477668931
  0
VERTEX
  5
175
  8
DRAFT
 10
-714.3402036576243
 20
-179.1332343018446
 30
0.0
  0
VERTEX
  5
176
  8
DRAFT
 10
-714.3529210606795
 20
-178.9878737197714
 30
0.0
 42
-1.000000000004893
  0
VERTEX
  5
177
  8
DRAFT
 10
-714.3130732727558
 20
-178.9843874900614
 30
0.0
  0
SEQEND
  5
178
  8
DRAFT
  0
POLYLINE
  5
179
  8
DRAFT
 66
     1
 10
0.0
 20
0.0
 30
0.0
  0
VERTEX
  5
17A
  8
DRAFT
 10
-716.7561582053668
 20
-180.0143577064996
 30
0.0
  0
VERTEX
  5
17B
  8
DRAFT
 10
-716.7809455671772
 20
-180.0165239479426
 30
0.0
 42
-0.1594425821297021
  0
VERTEX
  5
17C
  8
DRAFT
 10
-716.8566599006106
 20
-179.9988716421722
 30
0.0
 42
-0.0948242332909537
  0
VERTEX
  5
17D
  8
DRAFT
 10
-716.9912919472405
 20
-179.8781490643469
 30
0.0
 42
-0.2963770830180338
  0
VERTEX
  5
17E
  8
DRAFT
 10
-717.0252151263146
 20
-179.4899808712932
 30
0.0
 42
-0.0931204833715189
  0
VERTEX
  5
17F
  8
DRAFT
 10
-716.9135646848507
 20
-179.3477349304105
 30
0.0
 42
-0.1594425821280871
  0
VERTEX
  5
180
  8
DRAFT
 10
-716.8420601164617
 20
-179.3172167246028
 30
0.0
  0
VERTEX
  5
181
  8
DRAFT
 10
-716.8172727546898
 20
-179.315050482716
 30
0.0
  0
SEQEND
  5
182
  8
DRAFT
  0
POLYLINE
  5
183
  8
DRAFT
 66
     1
 10
0.0
 20
0.0
 30
0.0
 70
     1
  0
VERTEX
  5
184
  8
DRAFT
 10
-702.8697975697164
 20
-179.8282919562951
 30
0.0
 42
0.4142135623645367
  0
VERTEX
  5
185
  8
DRAFT
 10
-702.8413915208666
 20
-179.8621478477873
 30
0.0
  0
VERTEX
  5
186
  8
DRAFT
 10
-702.4239429263394
 20
-179.8986874920533
 30
0.0
 42
0.4142135623803456
  0
VERTEX
  5
187
  8
DRAFT
 10
-702.3900870348467
 20
-179.8702814432035
 30
0.0
  0
VERTEX
  5
188
  8
DRAFT
 10
-702.342635575474
 20
-179.3281703903641
 30
0.0
 42
0.4142135623756389
  0
VERTEX
  5
189
  8
DRAFT
 10
-702.3710416243239
 20
-179.2943144988718
 30
0.0
  0
VERTEX
  5
18A
  8
DRAFT
 10
-702.7884902188515
 20
-179.2577748546057
 30
0.0
 42
0.4142135623579842
  0
VERTEX
  5
18B
  8
DRAFT
 10
-702.8223461103436
 20
-179.2861809034559
 30
0.0
  0
SEQEND
  5
18C
  8
DRAFT
  0
POLYLINE
  5
18D
  8
DRAFT
 66
     1
 10
0.0
 20
0.0
 30
0.0
  0
VERTEX
  5
18E
  8
DRAFT
 10
-703.9895184751939
 20
-179.1608791548991
 30
0.0
  0
VERTEX
  5
18F
  8
DRAFT
 10
-703.9740774553137
 20
-178.9843874900604
 30
0.0
  0
VERTEX
  5
190
  8
DRAFT
 10
-704.0382647803485
 20
-179.7180519723817
 30
0.0
 42
0.4142135330820473
  0
VERTEX
  5
191
  8
DRAFT
 10
-704.0098573161072
 20
-179.7519066733856
 30
0.0
  0
VERTEX
  5
192
  8
DRAFT
 10
-703.48381553324
 20
-179.7979294189364
 30
0.0
 42
0.4142135777814111
  0
VERTEX
  5
193
  8
DRAFT
 10
-703.4499608289798
 20
-179.7695219533295
 30
0.0
  0
VERTEX
  5
194
  8
DRAFT
 10
-703.3857734688974
 20
-179.0358574708312
 30
0.0
 42
0.9999999999812247
  0
VERTEX
  5
195
  8
DRAFT
 10
-703.4256212568215
 20
-179.0323712411215
 30
0.0
  0
VERTEX
  5
196
  8
DRAFT
 10
-703.4383386869907
 20
-179.1777317982581
 30
0.0
 42
-0.4142135183893611
  0
VERTEX
  5
197
  8
DRAFT
 10
-703.4721933892737
 20
-179.2061392592505
 30
0.0
  0
VERTEX
  5
198
  8
DRAFT
 10
-703.9185396046418
 20
-179.1670890029839
 30
0.0
 42
-0.4142135477754449
  0
VERTEX
  5
199
  8
DRAFT
 10
-703.9469470704448
 20
-179.1332343018435
 30
0.0
  0
VERTEX
  5
19A
  8
DRAFT
 10
-703.9342296673898
 20
-178.9878737197704
 30
0.0
 42
1.000000000004123
  0
VERTEX
  5
19B
  8
DRAFT
 10
-703.9740774553132
 20
-178.9843874900604
 30
0.0
  0
SEQEND
  5
19C
  8
DRAFT
  0
POLYLINE
  5
19D
  8
DRAFT
 66
     1
 10
0.0
 20
0.0
 30
0.0
  0
VERTEX
  5
19E
  8
DRAFT
 10
-701.5309925227023
 20
-180.014357706498
 30
0.0
  0
VERTEX
  5
19F
  8
DRAFT
 10
-701.5062051608916
 20
-180.0165239479411
 30
0.0
 42
0.1594425821295435
  0
VERTEX
  5
1A0
  8
DRAFT
 10
-701.4304908274587
 20
-179.9988716421707
 30
0.0
 42
0.0948242332922113
  0
VERTEX
  5
1A1
  8
DRAFT
 10
-701.2958587808284
 20
-179.8781490643454
 30
0.0
 42
0.2963770830164804
  0
VERTEX
  5
1A2
  8
DRAFT
 10
-701.2619356017548
 20
-179.4899808712916
 30
0.0
 42
0.0931204833709424
  0
VERTEX
  5
1A3
  8
DRAFT
 10
-701.3735860432184
 20
-179.347734930409
 30
0.0
 42
0.1594425821264088
  0
VERTEX
  5
1A4
  8
DRAFT
 10
-701.4450906116076
 20
-179.3172167246013
 30
0.0
  0
VERTEX
  5
1A5
  8
DRAFT
 10
-701.4698779733794
 20
-179.3150504827144
 30
0.0
  0
SEQEND
  5
1A6
  8
DRAFT
  0
POLYLINE
  5
1A7
  8
DRAFT
 66
     1
 10
0.0
 20
0.0
 30
0.0
  0
VERTEX
  5
1A8
  8
DRAFT
 10
-705.2953282507759
 20
-170.9359347089315
 30
0.0
 42
0.6310043784636017
  0
VERTEX
  5
1A9
  8
DRAFT
 10
-705.1808297058648
 20
-170.7414869929808
 30
0.0
  0
VERTEX
  5
1AA
  8
DRAFT
 10
-705.2548561237141
 20
-170.6317917716706
 30
0.0
 42
0.2261705714033202
  0
VERTEX
  5
1AB
  8
DRAFT
 10
-705.3012047149358
 20
-170.6044918371831
 30
0.0
  0
VERTEX
  5
1AC
  8
DRAFT
 10
-705.3200010733964
 20
-170.6028439838723
 30
0.0
 42
0.1609716664712452
  0
VERTEX
  5
1AD
  8
DRAFT
 10
-705.358178786074
 20
-170.6118539428555
 30
0.0
  0
VERTEX
  5
1AE
  8
DRAFT
 10
-705.367318784454
 20
-170.6174698655327
 30
0.0
 42
-2.022848026564809
  0
VERTEX
  5
1AF
  8
DRAFT
 10
-705.3581596864971
 20
-170.5179370250767
 30
0.0
  0
VERTEX
  5
1B0
  8
DRAFT
 10
-705.3504040277165
 20
-170.5248909282295
 30
0.0
 42
0.1622776624745992
  0
VERTEX
  5
1B1
  8
DRAFT
 10
-705.3141389830836
 20
-170.5406181841822
 30
0.0
  0
VERTEX
  5
1B2
  8
DRAFT
 10
-705.2692736859783
 20
-170.544551468841
 30
0.0
 42
-0.2214558604925014
  0
VERTEX
  5
1B3
  8
DRAFT
 10
-705.2235612916921
 20
-170.5709266799404
 30
0.0
  0
VERTEX
  5
1B4
  8
DRAFT
 10
-704.9559847356777
 20
-170.9524697527415
 30
0.0
 42
0.1738231549367308
  0
VERTEX
  5
1B5
  8
DRAFT
 10
-704.8870791421311
 20
-171.0011428275399
 30
0.0
  0
SEQEND
  5
1B6
  8
DRAFT
  0
POLYLINE
  5
1B7
  8
DRAFT
 66
     1
 10
0.0
 20
0.0
 30
0.0
  0
VERTEX
  5
1B8
  8
DRAFT
 10
-706.2868735858108
 20
-170.8492645871401
 30
0.0
 42
0.6310043784659889
  0
VERTEX
  5
1B9
  8
DRAFT
 10
-706.1723750408996
 20
-170.6548168711894
 30
0.0
  0
VERTEX
  5
1BA
  8
DRAFT
 10
-706.2465780357386
 20
-170.5448599912366
 30
0.0
 42
0.2261705714017536
  0
VERTEX
  5
1BB
  8
DRAFT
 10
-706.2929266269601
 20
-170.5175600567492
 30
0.0
  0
VERTEX
  5
1BC
  8
DRAFT
 10
-706.3117229854207
 20
-170.5159122034383
 30
0.0
 42
0.1609716664667938
  0
VERTEX
  5
1BD
  8
DRAFT
 10
-706.3499006980984
 20
-170.5249221624215
 30
0.0
  0
VERTEX
  5
1BE
  8
DRAFT
 10
-706.359040696478
 20
-170.5305380850986
 30
0.0
 42
-2.022848026556414
  0
VERTEX
  5
1BF
  8
DRAFT
 10
-706.3498815985213
 20
-170.4310052446428
 30
0.0
  0
VERTEX
  5
1C0
  8
DRAFT
 10
-706.342125939741
 20
-170.4379591477956
 30
0.0
 42
0.1622776624701572
  0
VERTEX
  5
1C1
  8
DRAFT
 10
-706.3058608951079
 20
-170.4536864037483
 30
0.0
  0
VERTEX
  5
1C2
  8
DRAFT
 10
-706.2609955980029
 20
-170.4576196884069
 30
0.0
 42
-0.2214558605011278
  0
VERTEX
  5
1C3
  8
DRAFT
 10
-706.2152832037165
 20
-170.4839948995064
 30
0.0
  0
VERTEX
  5
1C4
  8
DRAFT
 10
-705.9711560730574
 20
-170.8321021178729
 30
0.0
 42
0.2215234308528461
  0
VERTEX
  5
1C5
  8
DRAFT
 10
-705.8796992019134
 20
-170.8848553485462
 30
0.0
  0
SEQEND
  5
1C6
  8
DRAFT
  0
POLYLINE
  5
1C7
  8
DRAFT
 66
     1
 10
0.0
 20
0.0
 30
0.0
 70
     1
  0
VERTEX
  5
1C8
  8
DRAFT
 10
-704.3405632119513
 20
-169.9829032383166
 30
0.0
 42
0.4142135623631285
  0
VERTEX
  5
1C9
  8
DRAFT
 10
-704.3689692608009
 20
-169.9490473468243
 30
0.0
  0
VERTEX
  5
1CA
  8
DRAFT
 10
-704.7864178553286
 20
-169.9125077025582
 30
0.0
 42
0.4142135623779659
  0
VERTEX
  5
1CB
  8
DRAFT
 10
-704.8202737468214
 20
-169.9409137514082
 30
0.0
  0
VERTEX
  5
1CC
  8
DRAFT
 10
-704.867725206194
 20
-170.4830248042476
 30
0.0
 42
0.4142135623750469
  0
VERTEX
  5
1CD
  8
DRAFT
 10
-704.8393191573441
 20
-170.5168806957399
 30
0.0
  0
VERTEX
  5
1CE
  8
DRAFT
 10
-704.4218705628165
 20
-170.553420340006
 30
0.0
 42
0.4142135623579842
  0
VERTEX
  5
1CF
  8
DRAFT
 10
-704.3880146713244
 20
-170.5250142911558
 30
0.0
  0
SEQEND
  5
1D0
  8
DRAFT
  0
POLYLINE
  5
1D1
  8
DRAFT
 66
     1
 10
0.0
 20
0.0
 30
0.0
  0
VERTEX
  5
1D2
  8
DRAFT
 10
-703.2208423064741
 20
-170.6503160397128
 30
0.0
  0
VERTEX
  5
1D3
  8
DRAFT
 10
-703.2362833263543
 20
-170.8268077045516
 30
0.0
  0
VERTEX
  5
1D4
  8
DRAFT
 10
-703.1720960013193
 20
-170.0931432222302
 30
0.0
 42
0.4142135330824152
  0
VERTEX
  5
1D5
  8
DRAFT
 10
-703.2005034655607
 20
-170.0592885212264
 30
0.0
  0
VERTEX
  5
1D6
  8
DRAFT
 10
-703.7265452484278
 20
-170.0132657756754
 30
0.0
 42
0.4142135777811963
  0
VERTEX
  5
1D7
  8
DRAFT
 10
-703.7603999526882
 20
-170.0416732412823
 30
0.0
  0
VERTEX
  5
1D8
  8
DRAFT
 10
-703.8245873127706
 20
-170.7753377237806
 30
0.0
 42
1.000000000018776
  0
VERTEX
  5
1D9
  8
DRAFT
 10
-703.7847395248468
 20
-170.7788239534903
 30
0.0
  0
VERTEX
  5
1DA
  8
DRAFT
 10
-703.7720220946773
 20
-170.6334633963537
 30
0.0
 42
-0.4142135183907479
  0
VERTEX
  5
1DB
  8
DRAFT
 10
-703.7381673923943
 20
-170.6050559353614
 30
0.0
  0
VERTEX
  5
1DC
  8
DRAFT
 10
-703.2918211770262
 20
-170.644106191628
 30
0.0
 42
-0.4142135477691652
  0
VERTEX
  5
1DD
  8
DRAFT
 10
-703.2634137112229
 20
-170.6779608927684
 30
0.0
  0
VERTEX
  5
1DE
  8
DRAFT
 10
-703.2761311142782
 20
-170.8233214748415
 30
0.0
 42
1.000000000018528
  0
VERTEX
  5
1DF
  8
DRAFT
 10
-703.2362833263544
 20
-170.8268077045515
 30
0.0
  0
SEQEND
  5
1E0
  8
DRAFT
  0
POLYLINE
  5
1E1
  8
DRAFT
 66
     1
 10
0.0
 20
0.0
 30
0.0
  0
VERTEX
  5
1E2
  8
DRAFT
 10
-705.6793682589655
 20
-169.7968374881134
 30
0.0
  0
VERTEX
  5
1E3
  8
DRAFT
 10
-705.704155620776
 20
-169.7946712466704
 30
0.0
 42
0.1594425821314711
  0
VERTEX
  5
1E4
  8
DRAFT
 10
-705.7798699542094
 20
-169.8123235524406
 30
0.0
 42
0.0948242332919268
  0
VERTEX
  5
1E5
  8
DRAFT
 10
-705.9145020008393
 20
-169.933046130266
 30
0.0
 42
0.2963770830154061
  0
VERTEX
  5
1E6
  8
DRAFT
 10
-705.9484251799132
 20
-170.3212143233197
 30
0.0
 42
0.0931204833713247
  0
VERTEX
  5
1E7
  8
DRAFT
 10
-705.8367747384495
 20
-170.4634602642024
 30
0.0
 42
0.1594425821308035
  0
VERTEX
  5
1E8
  8
DRAFT
 10
-705.7652701700604
 20
-170.4939784700102
 30
0.0
  0
VERTEX
  5
1E9
  8
DRAFT
 10
-705.7404828082886
 20
-170.4961447118969
 30
0.0
  0
SEQEND
  5
1EA
  8
DRAFT
  0
POLYLINE
  5
1EB
  8
DRAFT
 66
     1
 10
0.0
 20
0.0
 30
0.0
 70
     1
  0
VERTEX
  5
1EC
  8
DRAFT
 10
-691.7930076233151
 20
-169.9829032383178
 30
0.0
 42
-0.4142135623662148
  0
VERTEX
  5
1ED
  8
DRAFT
 10
-691.7646015744654
 20
-169.9490473468257
 30
0.0
  0
VERTEX
  5
1EE
  8
DRAFT
 10
-691.3471529799381
 20
-169.9125077025595
 30
0.0
 42
-0.4142135623810972
  0
VERTEX
  5
1EF
  8
DRAFT
 10
-691.3132970884456
 20
-169.9409137514095
 30
0.0
  0
VERTEX
  5
1F0
  8
DRAFT
 10
-691.2658456290727
 20
-170.4830248042489
 30
0.0
 42
-0.4142135623767005
  0
VERTEX
  5
1F1
  8
DRAFT
 10
-691.2942516779226
 20
-170.5168806957412
 30
0.0
  0
VERTEX
  5
1F2
  8
DRAFT
 10
-691.7117002724502
 20
-170.5534203400072
 30
0.0
 42
-0.4142135623534307
  0
VERTEX
  5
1F3
  8
DRAFT
 10
-691.7455561639422
 20
-170.525014291157
 30
0.0
  0
SEQEND
  5
1F4
  8
DRAFT
  0
POLYLINE
  5
1F5
  8
DRAFT
 66
     1
 10
0.0
 20
0.0
 30
0.0
  0
VERTEX
  5
1F6
  8
DRAFT
 10
-692.9127285287926
 20
-170.6503160397138
 30
0.0
  0
VERTEX
  5
1F7
  8
DRAFT
 10
-692.8972875089124
 20
-170.8268077045526
 30
0.0
  0
VERTEX
  5
1F8
  8
DRAFT
 10
-692.9614748339472
 20
-170.0931432222312
 30
0.0
 42
-0.4142135330790626
  0
VERTEX
  5
1F9
  8
DRAFT
 10
-692.9330673697059
 20
-170.0592885212274
 30
0.0
  0
VERTEX
  5
1FA
  8
DRAFT
 10
-692.4070255868387
 20
-170.0132657756766
 30
0.0
 42
-0.4142135777815794
  0
VERTEX
  5
1FB
  8
DRAFT
 10
-692.3731708825786
 20
-170.0416732412834
 30
0.0
  0
VERTEX
  5
1FC
  8
DRAFT
 10
-692.3089835224961
 20
-170.7753377237817
 30
0.0
 42
-0.9999999999920278
  0
VERTEX
  5
1FD
  8
DRAFT
 10
-692.3488313104202
 20
-170.7788239534915
 30
0.0
  0
VERTEX
  5
1FE
  8
DRAFT
 10
-692.3615487405895
 20
-170.6334633963548
 30
0.0
 42
0.4142135183847643
  0
VERTEX
  5
1FF
  8
DRAFT
 10
-692.3954034428724
 20
-170.6050559353622
 30
0.0
  0
VERTEX
  5
200
  8
DRAFT
 10
-692.8417496582405
 20
-170.644106191629
 30
0.0
 42
0.4142135477777793
  0
VERTEX
  5
201
  8
DRAFT
 10
-692.8701571240435
 20
-170.6779608927694
 30
0.0
  0
VERTEX
  5
202
  8
DRAFT
 10
-692.8574397209885
 20
-170.8233214748426
 30
0.0
 42
-1.000000000009512
  0
VERTEX
  5
203
  8
DRAFT
 10
-692.8972875089124
 20
-170.8268077045526
 30
0.0
  0
SEQEND
  5
204
  8
DRAFT
  0
POLYLINE
  5
205
  8
DRAFT
 66
     1
 10
0.0
 20
0.0
 30
0.0
  0
VERTEX
  5
206
  8
DRAFT
 10
-690.454202576301
 20
-169.796837488115
 30
0.0
  0
VERTEX
  5
207
  8
DRAFT
 10
-690.4294152144902
 20
-169.7946712466719
 30
0.0
 42
-0.1594425821291085
  0
VERTEX
  5
208
  8
DRAFT
 10
-690.3537008810574
 20
-169.8123235524423
 30
0.0
 42
-0.0948242332916845
  0
VERTEX
  5
209
  8
DRAFT
 10
-690.2190688344272
 20
-169.9330461302676
 30
0.0
 42
-0.2963770830164328
  0
VERTEX
  5
20A
  8
DRAFT
 10
-690.1851456553534
 20
-170.3212143233213
 30
0.0
 42
-0.0931204833720573
  0
VERTEX
  5
20B
  8
DRAFT
 10
-690.2967960968173
 20
-170.4634602642041
 30
0.0
 42
-0.1594425821286928
  0
VERTEX
  5
20C
  8
DRAFT
 10
-690.3683006652063
 20
-170.4939784700118
 30
0.0
  0
VERTEX
  5
20D
  8
DRAFT
 10
-690.3930880269781
 20
-170.4961447118985
 30
0.0
  0
SEQEND
  5
20E
  8
DRAFT
  0
POLYLINE
  5
20F
  8
DRAFT
 66
     1
 10
0.0
 20
0.0
 30
0.0
  0
VERTEX
  5
210
  8
DRAFT
 10
-715.9638686852767
 20
-182.9674046274366
 30
0.0
 42
-0.3369511922795121
  0
VERTEX
  5
211
  8
DRAFT
 10
-714.6819703372354
 20
-184.6536368684543
 30
0.0
  0
VERTEX
  5
212
  8
DRAFT
 10
-714.6819703372363
 20
-189.0900807098998
 30
0.0
 42
0.3889014466557082
  0
VERTEX
  5
213
  8
DRAFT
 10
-713.0843552965104
 20
-190.8334334637015
 30
0.0
  0
VERTEX
  5
214
  8
DRAFT
 10
-711.3263050671762
 20
-190.9871031166245
 30
0.0
 42
0.0436214070617794
  0
VERTEX
  5
215
  8
DRAFT
 10
-706.9608456608946
 20
-190.9871031166249
 30
0.0
  0
VERTEX
  5
216
  8
DRAFT
 10
-705.2027954315604
 20
-190.8334334637024
 30
0.0
 42
0.3889014484599609
  0
VERTEX
  5
217
  8
DRAFT
 10
-703.6051803908338
 20
-189.0900807099013
 30
0.0
  0
VERTEX
  5
218
  8
DRAFT
 10
-703.6051803908349
 20
-184.6536368684559
 30
0.0
 42
-0.3889014466557874
  0
VERTEX
  5
219
  8
DRAFT
 10
-702.0075653501091
 20
-182.910284114654
 30
0.0
  0
VERTEX
  5
21A
  8
DRAFT
 10
-700.249515120775
 20
-182.7566144617313
 30
0.0
 42
-0.0436214070618513
  0
VERTEX
  5
21B
  8
DRAFT
 10
-695.8840557144933
 20
-182.7566144617307
 30
0.0
  0
VERTEX
  5
21C
  8
DRAFT
 10
-694.1260054851591
 20
-182.9102841146533
 30
0.0
 42
-0.3889014466554579
  0
VERTEX
  5
21D
  8
DRAFT
 10
-692.5283904444328
 20
-184.6536368684548
 30
0.0
  0
VERTEX
  5
21E
  8
DRAFT
 10
-692.5283904444331
 20
-189.0900807099003
 30
0.0
 42
0.3369511295611392
  0
VERTEX
  5
21F
  8
DRAFT
 10
-691.2464918947637
 20
-190.7763132549304
 30
0.0
 42
-0.1738216956290149
  0
VERTEX
  5
220
  8
DRAFT
 10
-691.1775860995892
 20
-190.8249866337416
 30
0.0
  0
VERTEX
  5
221
  8
DRAFT
 10
-690.9100095435748
 20
-191.2065297065424
 30
0.0
 42
0.2214558604958123
  0
VERTEX
  5
222
  8
DRAFT
 10
-690.8642971492884
 20
-191.2329049176419
 30
0.0
  0
VERTEX
  5
223
  8
DRAFT
 10
-690.8194318521831
 20
-191.2368382023007
 30
0.0
 42
-0.1622776624747314
  0
VERTEX
  5
224
  8
DRAFT
 10
-690.7831668075503
 20
-191.2525654582534
 30
0.0
  0
VERTEX
  5
225
  8
DRAFT
 10
-690.7754111487695
 20
-191.259519361406
 30
0.0
 42
1.989253265126435
  0
VERTEX
  5
226
  8
DRAFT
 10
-690.7662520508129
 20
-191.1599865209503
 30
0.0
  0
VERTEX
  5
227
  8
DRAFT
 10
-690.7753920491928
 20
-191.1656024436274
 30
0.0
 42
-0.1609716664686786
  0
VERTEX
  5
228
  8
DRAFT
 10
-690.8135697618706
 20
-191.1746124026106
 30
0.0
  0
VERTEX
  5
229
  8
DRAFT
 10
-690.8323661203309
 20
-191.1729645492998
 30
0.0
 42
-0.2261705714050367
  0
VERTEX
  5
22A
  8
DRAFT
 10
-690.8787147115529
 20
-191.1456646148123
 30
0.0
  0
VERTEX
  5
22B
  8
DRAFT
 10
-690.9527411294018
 20
-191.0359693935019
 30
0.0
 42
-0.6310043784597713
  0
VERTEX
  5
22C
  8
DRAFT
 10
-690.8382425844908
 20
-190.8415216775514
 30
0.0
  0
VERTEX
  5
22D
  8
DRAFT
 10
-690.2538716333534
 20
-190.8926010379365
 30
0.0
 42
-0.2215234308524424
  0
VERTEX
  5
22E
  8
DRAFT
 10
-690.1624147622091
 20
-190.9453542686096
 30
0.0
  0
VERTEX
  5
22F
  8
DRAFT
 10
-689.9182876315501
 20
-191.2934614869762
 30
0.0
 42
0.221455860500469
  0
VERTEX
  5
230
  8
DRAFT
 10
-689.8725752372637
 20
-191.3198366980757
 30
0.0
  0
VERTEX
  5
231
  8
DRAFT
 10
-689.8277099401586
 20
-191.3237699827343
 30
0.0
 42
-0.162277662467323
  0
VERTEX
  5
232
  8
DRAFT
 10
-689.7914448955257
 20
-191.3394972386871
 30
0.0
  0
VERTEX
  5
233
  8
DRAFT
 10
-689.7836892367451
 20
-191.3464511418396
 30
0.0
 42
1.989253265117733
  0
VERTEX
  5
234
  8
DRAFT
 10
-689.7745301387884
 20
-191.2469183013841
 30
0.0
  0
VERTEX
  5
235
  8
DRAFT
 10
-689.7836701371684
 20
-191.252534224061
 30
0.0
 42
-0.1609716664679783
  0
VERTEX
  5
236
  8
DRAFT
 10
-689.8218478498458
 20
-191.2615441830444
 30
0.0
  0
VERTEX
  5
237
  8
DRAFT
 10
-689.8406442083063
 20
-191.2598963297335
 30
0.0
 42
-0.2261705714073747
  0
VERTEX
  5
238
  8
DRAFT
 10
-689.8869927995281
 20
-191.232596395246
 30
0.0
  0
VERTEX
  5
239
  8
DRAFT
 10
-689.9611957943671
 20
-191.1226395152931
 30
0.0
 42
-0.6310043784604442
  0
VERTEX
  5
23A
  8
DRAFT
 10
-689.846697249456
 20
-190.9281917993424
 30
0.0
  0
VERTEX
  5
23B
  8
DRAFT
 10
-689.5899373388143
 20
-190.9506349614856
 30
0.0
 42
-0.4142489508365829
  0
VERTEX
  5
23C
  8
DRAFT
 10
-689.2490196166056
 20
-191.3569096074397
 30
0.0
  0
VERTEX
  5
23D
  8
DRAFT
 10
-689.3144475330424
 20
-192.1043933968439
 30
0.0
 42
-0.4141732650321097
  0
VERTEX
  5
23E
  8
DRAFT
 10
-689.7206668325277
 20
-192.4452704784295
 30
0.0
  0
VERTEX
  5
23F
  8
DRAFT
 10
-689.9773520178433
 20
-192.4228381837561
 30
0.0
 42
-0.6310947064880679
  0
VERTEX
  5
240
  8
DRAFT
 10
-690.0563600458494
 20
-192.2114526667998
 30
0.0
  0
VERTEX
  5
241
  8
DRAFT
 10
-689.9643370782799
 20
-192.1162191318175
 30
0.0
 42
-0.2261705714001697
  0
VERTEX
  5
242
  8
DRAFT
 10
-689.9139504641154
 20
-192.0973865153164
 30
0.0
  0
VERTEX
  5
243
  8
DRAFT
 10
-689.8951536554404
 20
-192.099029225136
 30
0.0
 42
-0.1609716664660754
  0
VERTEX
  5
244
  8
DRAFT
 10
-689.8591218101737
 20
-192.1145348122851
 30
0.0
  0
VERTEX
  5
245
  8
DRAFT
 10
-689.8510964601271
 20
-192.1216532330742
 30
0.0
 42
2.022848026546665
  0
VERTEX
  5
246
  8
DRAFT
 10
-689.8428243672456
 20
-192.0220427522807
 30
0.0
  0
VERTEX
  5
247
  8
DRAFT
 10
-689.8516701937368
 20
-192.0275435127613
 30
0.0
 42
-0.1622776624671425
  0
VERTEX
  5
248
  8
DRAFT
 10
-689.8901160702409
 20
-192.036731255785
 30
0.0
  0
VERTEX
  5
249
  8
DRAFT
 10
-689.9349824419693
 20
-192.0328102481989
 30
0.0
 42
0.2214558604922615
  0
VERTEX
  5
24A
  8
DRAFT
 10
-689.9845818808756
 20
-192.0508427303374
 30
0.0
  0
VERTEX
  5
24B
  8
DRAFT
 10
-690.2854114563032
 20
-192.3511820008126
 30
0.0
 42
-0.2214556596428912
  0
VERTEX
  5
24C
  8
DRAFT
 10
-690.3846102387485
 20
-192.3872469734244
 30
0.0
  0
VERTEX
  5
24D
  8
DRAFT
 10
-690.9691064303092
 20
-192.3361665388887
 30
0.0
 42
-0.6310947064845733
  0
VERTEX
  5
24E
  8
DRAFT
 10
-691.0481144583157
 20
-192.1247810219327
 30
0.0
  0
VERTEX
  5
24F
  8
DRAFT
 10
-690.9560807909633
 20
-192.0295364138654
 30
0.0
 42
-0.2261705714039356
  0
VERTEX
  5
250
  8
DRAFT
 10
-690.9056941767991
 20
-192.0107037973643
 30
0.0
  0
VERTEX
  5
251
  8
DRAFT
 10
-690.8868973681239
 20
-192.0123465071838
 30
0.0
 42
-0.1609716664634218
  0
VERTEX
  5
252
  8
DRAFT
 10
-690.8508655228571
 20
-192.027852094333
 30
0.0
  0
VERTEX
  5
253
  8
DRAFT
 10
-690.8428401728107
 20
-192.0349705151221
 30
0.0
 42
2.022848026559577
  0
VERTEX
  5
254
  8
DRAFT
 10
-690.834568079929
 20
-191.9353600343287
 30
0.0
  0
VERTEX
  5
255
  8
DRAFT
 10
-690.8434139064204
 20
-191.9408607948091
 30
0.0
 42
-0.1622776624704982
  0
VERTEX
  5
256
  8
DRAFT
 10
-690.8818597829244
 20
-191.9500485378328
 30
0.0
  0
VERTEX
  5
257
  8
DRAFT
 10
-690.9267261546528
 20
-191.9461275302467
 30
0.0
 42
0.2214558604934168
  0
VERTEX
  5
258
  8
DRAFT
 10
-690.9763255935591
 20
-191.9641600123853
 30
0.0
  0
VERTEX
  5
259
  8
DRAFT
 10
-691.2771672466131
 20
-192.2645103878939
 30
0.0
 42
-0.2214552436166447
  0
VERTEX
  5
25A
  8
DRAFT
 10
-691.3763658887316
 20
-192.3005752204075
 30
0.0
  0
VERTEX
  5
25B
  8
DRAFT
 10
-695.8841201901105
 20
-191.9066144617311
 30
0.0
 42
0.0436214061427357
  0
VERTEX
  5
25C
  8
DRAFT
 10
-700.249450645156
 20
-191.9066144617315
 30
0.0
  0
VERTEX
  5
25D
  8
DRAFT
 10
-704.757204946535
 20
-192.300575220409
 30
0.0
 42
-0.2214552436162339
  0
VERTEX
  5
25E
  8
DRAFT
 10
-704.8564035886534
 20
-192.2645103878953
 30
0.0
  0
VERTEX
  5
25F
  8
DRAFT
 10
-705.1572452417076
 20
-191.9641600123869
 30
0.0
 42
0.2214558604940286
  0
VERTEX
  5
260
  8
DRAFT
 10
-705.2068446806138
 20
-191.946127530248
 30
0.0
  0
VERTEX
  5
261
  8
DRAFT
 10
-705.2517110523422
 20
-191.9500485378343
 30
0.0
 42
-0.1622776624672026
  0
VERTEX
  5
262
  8
DRAFT
 10
-705.2901569288462
 20
-191.9408607948106
 30
0.0
  0
VERTEX
  5
263
  8
DRAFT
 10
-705.2990027553373
 20
-191.9353600343301
 30
0.0
 42
1.98925326510869
  0
VERTEX
  5
264
  8
DRAFT
 10
-705.2907306624558
 20
-192.0349705151237
 30
0.0
  0
VERTEX
  5
265
  8
DRAFT
 10
-705.2827053124095
 20
-192.0278520943345
 30
0.0
 42
-0.1609716664654825
  0
VERTEX
  5
266
  8
DRAFT
 10
-705.2466734671427
 20
-192.0123465071853
 30
0.0
  0
VERTEX
  5
267
  8
DRAFT
 10
-705.2278766584676
 20
-192.0107037973656
 30
0.0
 42
-0.2261705714023133
  0
VERTEX
  5
268
  8
DRAFT
 10
-705.1774900443033
 20
-192.0295364138669
 30
0.0
  0
VERTEX
  5
269
  8
DRAFT
 10
-705.0854563769509
 20
-192.1247810219342
 30
0.0
 42
-0.6310947064855673
  0
VERTEX
  5
26A
  8
DRAFT
 10
-705.1644644049574
 20
-192.3361665388902
 30
0.0
  0
VERTEX
  5
26B
  8
DRAFT
 10
-705.7489605965181
 20
-192.3872469734258
 30
0.0
 42
-0.2214556596442063
  0
VERTEX
  5
26C
  8
DRAFT
 10
-705.8481593789635
 20
-192.351182000814
 30
0.0
  0
VERTEX
  5
26D
  8
DRAFT
 10
-706.148988954391
 20
-192.0508427303392
 30
0.0
 42
0.2214558604899949
  0
VERTEX
  5
26E
  8
DRAFT
 10
-706.1985883932973
 20
-192.0328102482004
 30
0.0
  0
VERTEX
  5
26F
  8
DRAFT
 10
-706.2434547650256
 20
-192.0367312557866
 30
0.0
 42
-0.1622776624636159
  0
VERTEX
  5
270
  8
DRAFT
 10
-706.2819006415298
 20
-192.027543512763
 30
0.0
  0
VERTEX
  5
271
  8
DRAFT
 10
-706.290746468021
 20
-192.0220427522825
 30
0.0
 42
1.989253265126097
  0
VERTEX
  5
272
  8
DRAFT
 10
-706.2824743751394
 20
-192.121653233076
 30
0.0
  0
VERTEX
  5
273
  8
DRAFT
 10
-706.2744490250928
 20
-192.1145348122868
 30
0.0
 42
-0.1609716664677091
  0
VERTEX
  5
274
  8
DRAFT
 10
-706.2384171798262
 20
-192.0990292251375
 30
0.0
  0
VERTEX
  5
275
  8
DRAFT
 10
-706.2196203711512
 20
-192.097386515318
 30
0.0
 42
-0.226170571402291
  0
VERTEX
  5
276
  8
DRAFT
 10
-706.1692337569867
 20
-192.1162191318192
 30
0.0
  0
VERTEX
  5
277
  8
DRAFT
 10
-706.0772107894172
 20
-192.2114526668015
 30
0.0
 42
-0.6310947064877852
  0
VERTEX
  5
278
  8
DRAFT
 10
-706.1562188174233
 20
-192.4228381837577
 30
0.0
  0
VERTEX
  5
279
  8
DRAFT
 10
-706.4129040027389
 20
-192.4452704784314
 30
0.0
 42
-0.4141732650319704
  0
VERTEX
  5
27A
  8
DRAFT
 10
-706.8191233022243
 20
-192.1043933968457
 30
0.0
  0
VERTEX
  5
27B
  8
DRAFT
 10
-706.884551218661
 20
-191.3569096074414
 30
0.0
 42
-0.4142489508367255
  0
VERTEX
  5
27C
  8
DRAFT
 10
-706.5436334964526
 20
-190.9506349614874
 30
0.0
  0
SEQEND
  5
27D
  8
DRAFT
  0
POLYLINE
  5
27E
  8
DRAFT
 66
     1
 10
0.0
 20
0.0
 30
0.0
  0
VERTEX
  5
27F
  8
DRAFT
 10
-700.6667272852155
 20
-182.79308261687
 30
0.0
 42
0.4142489508359934
  0
VERTEX
  5
280
  8
DRAFT
 10
-700.3258095630068
 20
-182.386807970916
 30
0.0
  0
VERTEX
  5
281
  8
DRAFT
 10
-700.3912374794437
 20
-181.6393241815117
 30
0.0
 42
0.4141732650313032
  0
VERTEX
  5
282
  8
DRAFT
 10
-700.797456778929
 20
-181.2984470999258
 30
0.0
  0
VERTEX
  5
283
  8
DRAFT
 10
-701.0541419642445
 20
-181.3208793945996
 30
0.0
 42
0.6310947064866572
  0
VERTEX
  5
284
  8
DRAFT
 10
-701.1331499922507
 20
-181.5322649115559
 30
0.0
  0
VERTEX
  5
285
  8
DRAFT
 10
-701.041127024681
 20
-181.6274984465381
 30
0.0
 42
0.2261705714037696
  0
VERTEX
  5
286
  8
DRAFT
 10
-700.9907404105167
 20
-181.6463310630393
 30
0.0
  0
VERTEX
  5
287
  8
DRAFT
 10
-700.9719436018416
 20
-181.6446883532196
 30
0.0
 42
0.1609716664720685
  0
VERTEX
  5
288
  8
DRAFT
 10
-700.9359117565749
 20
-181.6291827660705
 30
0.0
  0
VERTEX
  5
289
  8
DRAFT
 10
-700.9278864065284
 20
-181.6220643452814
 30
0.0
 42
-2.022848026596702
  0
VERTEX
  5
28A
  8
DRAFT
 10
-700.919614313647
 20
-181.7216748260752
 30
0.0
  0
VERTEX
  5
28B
  8
DRAFT
 10
-700.9284601401381
 20
-181.7161740655944
 30
0.0
 42
0.1622776624665707
  0
VERTEX
  5
28C
  8
DRAFT
 10
-700.9669060166422
 20
-181.7069863225707
 30
0.0
  0
VERTEX
  5
28D
  8
DRAFT
 10
-701.0117723883706
 20
-181.7109073301567
 30
0.0
 42
-0.2214558604903738
  0
VERTEX
  5
28E
  8
DRAFT
 10
-701.0613718272768
 20
-181.6928748480182
 30
0.0
  0
VERTEX
  5
28F
  8
DRAFT
 10
-701.3622014027045
 20
-181.3925355775431
 30
0.0
 42
0.2214556596407786
  0
VERTEX
  5
290
  8
DRAFT
 10
-701.4614001851497
 20
-181.3564706049314
 30
0.0
  0
VERTEX
  5
291
  8
DRAFT
 10
-702.0458963767105
 20
-181.4075510394669
 30
0.0
 42
0.6310947064819462
  0
VERTEX
  5
292
  8
DRAFT
 10
-702.1249044047171
 20
-181.6189365564231
 30
0.0
  0
VERTEX
  5
293
  8
DRAFT
 10
-702.0328707373645
 20
-181.7141811644903
 30
0.0
 42
0.2261705714066439
  0
VERTEX
  5
294
  8
DRAFT
 10
-701.9824841232002
 20
-181.7330137809915
 30
0.0
  0
VERTEX
  5
295
  8
DRAFT
 10
-701.9636873145251
 20
-181.7313710711718
 30
0.0
 42
0.1609716664716928
  0
VERTEX
  5
296
  8
DRAFT
 10
-701.9276554692584
 20
-181.7158654840227
 30
0.0
  0
VERTEX
  5
297
  8
DRAFT
 10
-701.919630119212
 20
-181.7087470632335
 30
0.0
 42
-2.022848026566755
  0
VERTEX
  5
298
  8
DRAFT
 10
-701.9113580263304
 20
-181.808357544027
 30
0.0
  0
VERTEX
  5
299
  8
DRAFT
 10
-701.9202038528217
 20
-181.8028567835465
 30
0.0
 42
0.1622776624673535
  0
VERTEX
  5
29A
  8
DRAFT
 10
-701.9586497293255
 20
-181.7936690405228
 30
0.0
  0
VERTEX
  5
29B
  8
DRAFT
 10
-702.003516101054
 20
-181.797590048109
 30
0.0
 42
-0.2214558604929358
  0
VERTEX
  5
29C
  8
DRAFT
 10
-702.0531155399602
 20
-181.7795575659703
 30
0.0
  0
VERTEX
  5
29D
  8
DRAFT
 10
-702.3539571930144
 20
-181.4792071904617
 30
0.0
 42
0.2214552436156788
  0
VERTEX
  5
29E
  8
DRAFT
 10
-702.4531558351329
 20
-181.443142357948
 30
0.0
  0
VERTEX
  5
29F
  8
DRAFT
 10
-706.9609101365118
 20
-181.8371031166245
 30
0.0
 42
-0.0436214061426229
  0
VERTEX
  5
2A0
  8
DRAFT
 10
-711.3262405915573
 20
-181.837103116624
 30
0.0
  0
VERTEX
  5
2A1
  8
DRAFT
 10
-715.8339948929362
 20
-181.4431423579466
 30
0.0
 42
0.2214552436126783
  0
VERTEX
  5
2A2
  8
DRAFT
 10
-715.9331935350546
 20
-181.4792071904604
 30
0.0
  0
VERTEX
  5
2A3
  8
DRAFT
 10
-716.2340351881088
 20
-181.7795575659688
 30
0.0
 42
-0.2214558604883051
  0
VERTEX
  5
2A4
  8
DRAFT
 10
-716.2836346270151
 20
-181.7975900481075
 30
0.0
  0
VERTEX
  5
2A5
  8
DRAFT
 10
-716.3285009987435
 20
-181.7936690405214
 30
0.0
 42
0.1622776624684701
  0
VERTEX
  5
2A6
  8
DRAFT
 10
-716.3669468752473
 20
-181.802856783545
 30
0.0
  0
VERTEX
  5
2A7
  8
DRAFT
 10
-716.3757927017385
 20
-181.8083575440255
 30
0.0
 42
-1.989253265108936
  0
VERTEX
  5
2A8
  8
DRAFT
 10
-716.3675206088569
 20
-181.708747063232
 30
0.0
  0
VERTEX
  5
2A9
  8
DRAFT
 10
-716.3594952588107
 20
-181.7158654840212
 30
0.0
 42
0.1609716664676223
  0
VERTEX
  5
2AA
  8
DRAFT
 10
-716.323463413544
 20
-181.7313710711703
 30
0.0
  0
VERTEX
  5
2AB
  8
DRAFT
 10
-716.3046666048689
 20
-181.73301378099
 30
0.0
 42
0.2261705714039315
  0
VERTEX
  5
2AC
  8
DRAFT
 10
-716.2542799907046
 20
-181.7141811644888
 30
0.0
  0
VERTEX
  5
2AD
  8
DRAFT
 10
-716.1622463233522
 20
-181.6189365564215
 30
0.0
 42
0.6310947064837277
  0
VERTEX
  5
2AE
  8
DRAFT
 10
-716.2412543513586
 20
-181.4075510394651
 30
0.0
  0
VERTEX
  5
2AF
  8
DRAFT
 10
-716.8257505429194
 20
-181.3564706049298
 30
0.0
 42
0.2214556596444979
  0
VERTEX
  5
2B0
  8
DRAFT
 10
-716.9249493253645
 20
-181.3925355775416
 30
0.0
  0
VERTEX
  5
2B1
  8
DRAFT
 10
-717.2257789007923
 20
-181.6928748480165
 30
0.0
 42
-0.2214558604899284
  0
VERTEX
  5
2B2
  8
DRAFT
 10
-717.2753783396985
 20
-181.7109073301551
 30
0.0
  0
VERTEX
  5
2B3
  8
DRAFT
 10
-717.3202447114269
 20
-181.706986322569
 30
0.0
 42
0.1622776624648138
  0
VERTEX
  5
2B4
  8
DRAFT
 10
-717.358690587931
 20
-181.7161740655926
 30
0.0
  0
VERTEX
  5
2B5
  8
DRAFT
 10
-717.3675364144223
 20
-181.7216748260732
 30
0.0
 42
-1.989253265112536
  0
VERTEX
  5
2B6
  8
DRAFT
 10
-717.3592643215405
 20
-181.6220643452796
 30
0.0
  0
VERTEX
  5
2B7
  8
DRAFT
 10
-717.3512389714941
 20
-181.6291827660688
 30
0.0
 42
0.1609716664700704
  0
VERTEX
  5
2B8
  8
DRAFT
 10
-717.3152071262275
 20
-181.644688353218
 30
0.0
  0
VERTEX
  5
2B9
  8
DRAFT
 10
-717.2964103175524
 20
-181.6463310630376
 30
0.0
 42
0.226170571401952
  0
VERTEX
  5
2BA
  8
DRAFT
 10
-717.246023703388
 20
-181.6274984465364
 30
0.0
  0
VERTEX
  5
2BB
  8
DRAFT
 10
-717.1540007358185
 20
-181.5322649115541
 30
0.0
 42
0.6310947064836084
  0
VERTEX
  5
2BC
  8
DRAFT
 10
-717.2330087638246
 20
-181.3208793945979
 30
0.0
  0
VERTEX
  5
2BD
  8
DRAFT
 10
-717.48969394914
 20
-181.2984470999242
 30
0.0
 42
0.4141732650318731
  0
VERTEX
  5
2BE
  8
DRAFT
 10
-717.8959132486256
 20
-181.6393241815099
 30
0.0
  0
VERTEX
  5
2BF
  8
DRAFT
 10
-717.9613411650623
 20
-182.3868079709142
 30
0.0
 42
0.4142489508366739
  0
VERTEX
  5
2C0
  8
DRAFT
 10
-717.6204234428538
 20
-182.7930826168683
 30
0.0
  0
VERTEX
  5
2C1
  8
DRAFT
 10
-717.363663532212
 20
-182.8155257790115
 30
0.0
 42
0.6310043784628999
  0
VERTEX
  5
2C2
  8
DRAFT
 10
-717.2491649873007
 20
-182.6210780630607
 30
0.0
  0
VERTEX
  5
2C3
  8
DRAFT
 10
-717.3233679821398
 20
-182.511121183108
 30
0.0
 42
0.2261705713995627
  0
VERTEX
  5
2C4
  8
DRAFT
 10
-717.3697165733615
 20
-182.4838212486206
 30
0.0
  0
VERTEX
  5
2C5
  8
DRAFT
 10
-717.388512931822
 20
-182.4821733953097
 30
0.0
 42
0.1609716664675711
  0
VERTEX
  5
2C6
  8
DRAFT
 10
-717.4266906444993
 20
-182.491183354293
 30
0.0
  0
VERTEX
  5
2C7
  8
DRAFT
 10
-717.4358306428793
 20
-182.49679927697
 30
0.0
 42
-2.022848026505724
  0
VERTEX
  5
2C8
  8
DRAFT
 10
-717.4266715449228
 20
-182.3972664365145
 30
0.0
  0
VERTEX
  5
2C9
  8
DRAFT
 10
-717.4189158861423
 20
-182.4042203396669
 30
0.0
 42
0.1622776624723006
  0
VERTEX
  5
2CA
  8
DRAFT
 10
-717.3826508415091
 20
-182.4199475956197
 30
0.0
  0
VERTEX
  5
2CB
  8
DRAFT
 10
-717.3377855444041
 20
-182.4238808802783
 30
0.0
 42
-0.2214558604989379
  0
VERTEX
  5
2CC
  8
DRAFT
 10
-717.2920731501176
 20
-182.4502560913778
 30
0.0
  0
VERTEX
  5
2CD
  8
DRAFT
 10
-717.0479460194587
 20
-182.7983633097442
 30
0.0
 42
0.2215234308507124
  0
VERTEX
  5
2CE
  8
DRAFT
 10
-716.9564891483146
 20
-182.8511165404176
 30
0.0
  0
VERTEX
  5
2CF
  8
DRAFT
 10
-716.3721181971771
 20
-182.9021959008029
 30
0.0
 42
0.6310043784615432
  0
VERTEX
  5
2D0
  8
DRAFT
 10
-716.2576196522663
 20
-182.7077481848522
 30
0.0
  0
VERTEX
  5
2D1
  8
DRAFT
 10
-716.3316460701154
 20
-182.5980529635419
 30
0.0
 42
0.2261705714070353
  0
VERTEX
  5
2D2
  8
DRAFT
 10
-716.3779946613372
 20
-182.5707530290544
 30
0.0
  0
VERTEX
  5
2D3
  8
DRAFT
 10
-716.3967910197977
 20
-182.5691051757437
 30
0.0
 42
0.1609716664682776
  0
VERTEX
  5
2D4
  8
DRAFT
 10
-716.4349687324753
 20
-182.5781151347269
 30
0.0
  0
VERTEX
  5
2D5
  8
DRAFT
 10
-716.4441087308554
 20
-182.583731057404
 30
0.0
 42
-2.022848026569104
  0
VERTEX
  5
2D6
  8
DRAFT
 10
-716.4349496328983
 20
-182.4841982169481
 30
0.0
  0
VERTEX
  5
2D7
  8
DRAFT
 10
-716.4271939741178
 20
-182.4911521201008
 30
0.0
 42
0.1622776624696978
  0
VERTEX
  5
2D8
  8
DRAFT
 10
-716.390928929485
 20
-182.5068793760535
 30
0.0
  0
VERTEX
  5
2D9
  8
DRAFT
 10
-716.3460636323797
 20
-182.5108126607123
 30
0.0
 42
-0.2214558604977575
  0
VERTEX
  5
2DA
  8
DRAFT
 10
-716.3003512380936
 20
-182.5371878718119
 30
0.0
  0
VERTEX
  5
2DB
  8
DRAFT
 10
-716.032774682079
 20
-182.9187309446128
 30
0.0
 42
0.1738231549366422
  0
VERTEX
  5
2DC
  8
DRAFT
 10
-715.9638690885324
 20
-182.9674040194112
 30
0.0
 42
-0.3369513388468766
  0
VERTEX
  5
2DD
  8
DRAFT
 10
-714.6819703372352
 20
-184.6536368684542
 30
0.0
  0
SEQEND
  5
2DE
  8
DRAFT
  0
POLYLINE
  5
2DF
  8
DRAFT
 66
     1
 10
0.0
 20
0.0
 30
0.0
  0
VERTEX
  5
2E0
  8
DRAFT
 10
-701.3306615797546
 20
-182.8511165404192
 30
0.0
 42
0.2215234308508946
  0
VERTEX
  5
2E1
  8
DRAFT
 10
-701.2392047086104
 20
-182.798363309746
 30
0.0
  0
VERTEX
  5
2E2
  8
DRAFT
 10
-700.9950775779514
 20
-182.4502560913795
 30
0.0
 42
-0.2214558604968567
  0
VERTEX
  5
2E3
  8
DRAFT
 10
-700.949365183665
 20
-182.42388088028
 30
0.0
  0
VERTEX
  5
2E4
  8
DRAFT
 10
-700.9044998865598
 20
-182.4199475956213
 30
0.0
 42
0.162277662470057
  0
VERTEX
  5
2E5
  8
DRAFT
 10
-700.868234841927
 20
-182.4042203396686
 30
0.0
  0
VERTEX
  5
2E6
  8
DRAFT
 10
-700.8604791831463
 20
-182.397266436516
 30
0.0
 42
-1.989253265133808
  0
VERTEX
  5
2E7
  8
DRAFT
 10
-700.8513200851896
 20
-182.4967992769717
 30
0.0
  0
VERTEX
  5
2E8
  8
DRAFT
 10
-700.8604600835697
 20
-182.4911833542947
 30
0.0
 42
0.1609716664689392
  0
VERTEX
  5
2E9
  8
DRAFT
 10
-700.8986377962469
 20
-182.4821733953114
 30
0.0
  0
VERTEX
  5
2EA
  8
DRAFT
 10
-700.9174341547076
 20
-182.4838212486221
 30
0.0
 42
0.2261705714054385
  0
VERTEX
  5
2EB
  8
DRAFT
 10
-700.9637827459293
 20
-182.5111211831098
 30
0.0
  0
VERTEX
  5
2EC
  8
DRAFT
 10
-701.0379857407684
 20
-182.6210780630625
 30
0.0
 42
0.6310043784623399
  0
VERTEX
  5
2ED
  8
DRAFT
 10
-700.9234871958573
 20
-182.8155257790132
 30
0.0
  0
SEQEND
  5
2EE
  8
DRAFT
  0
POLYLINE
  5
2EF
  8
DRAFT
 66
     1
 10
0.0
 20
0.0
 30
0.0
  0
VERTEX
  5
2F0
  8
DRAFT
 10
-702.3232816395373
 20
-182.9674040194126
 30
0.0
 42
0.1738231549370128
  0
VERTEX
  5
2F1
  8
DRAFT
 10
-702.2543760459906
 20
-182.9187309446141
 30
0.0
  0
VERTEX
  5
2F2
  8
DRAFT
 10
-701.9867994899761
 20
-182.5371878718132
 30
0.0
 42
-0.2214558604942251
  0
VERTEX
  5
2F3
  8
DRAFT
 10
-701.9410870956897
 20
-182.5108126607138
 30
0.0
  0
VERTEX
  5
2F4
  8
DRAFT
 10
-701.8962217985844
 20
-182.5068793760549
 30
0.0
 42
0.1622776624732089
  0
VERTEX
  5
2F5
  8
DRAFT
 10
-701.8599567539516
 20
-182.4911521201022
 30
0.0
  0
VERTEX
  5
2F6
  8
DRAFT
 10
-701.8522010951708
 20
-182.4841982169496
 30
0.0
 42
-1.989253265111175
  0
VERTEX
  5
2F7
  8
DRAFT
 10
-701.8430419972142
 20
-182.5837310574054
 30
0.0
  0
VERTEX
  5
2F8
  8
DRAFT
 10
-701.852181995594
 20
-182.5781151347283
 30
0.0
 42
0.1609716664645802
  0
VERTEX
  5
2F9
  8
DRAFT
 10
-701.8903597082718
 20
-182.5691051757451
 30
0.0
  0
VERTEX
  5
2FA
  8
DRAFT
 10
-701.9091560667323
 20
-182.5707530290558
 30
0.0
 42
0.2261705714021109
  0
VERTEX
  5
2FB
  8
DRAFT
 10
-701.9555046579541
 20
-182.5980529635434
 30
0.0
  0
VERTEX
  5
2FC
  8
DRAFT
 10
-702.0295310758033
 20
-182.7077481848537
 30
0.0
 42
0.6310043784624783
  0
VERTEX
  5
2FD
  8
DRAFT
 10
-701.9150325308921
 20
-182.9021959008044
 30
0.0
  0
SEQEND
  5
2FE
  8
DRAFT
  0
POLYLINE
  5
2FF
  8
DRAFT
 66
     1
 10
0.0
 20
0.0
 30
0.0
 70
     1
  0
VERTEX
  5
300
  8
DRAFT
 10
-715.4173531583526
 20
-181.9491644301879
 30
0.0
 42
0.4142135623601188
  0
VERTEX
  5
301
  8
DRAFT
 10
-715.4457592072022
 20
-181.9153085386956
 30
0.0
  0
VERTEX
  5
302
  8
DRAFT
 10
-715.8632078017299
 20
-181.8787688944295
 30
0.0
 42
0.4142135623799452
  0
VERTEX
  5
303
  8
DRAFT
 10
-715.8970636932228
 20
-181.9071749432796
 30
0.0
  0
VERTEX
  5
304
  8
DRAFT
 10
-715.9445151525953
 20
-182.449285996119
 30
0.0
 42
0.4142135623822256
  0
VERTEX
  5
305
  8
DRAFT
 10
-715.9161091037454
 20
-182.4831418876113
 30
0.0
  0
VERTEX
  5
306
  8
DRAFT
 10
-715.4986605092178
 20
-182.5196815318774
 30
0.0
 42
0.4142135623542085
  0
VERTEX
  5
307
  8
DRAFT
 10
-715.4648046177257
 20
-182.4912754830271
 30
0.0
  0
SEQEND
  5
308
  8
DRAFT
  0
POLYLINE
  5
309
  8
DRAFT
 66
     1
 10
0.0
 20
0.0
 30
0.0
  0
VERTEX
  5
30A
  8
DRAFT
 10
-714.2976322528754
 20
-182.6165772315842
 30
0.0
  0
VERTEX
  5
30B
  8
DRAFT
 10
-714.3130732727556
 20
-182.7930688964229
 30
0.0
  0
VERTEX
  5
30C
  8
DRAFT
 10
-714.2488859477207
 20
-182.0594044141015
 30
0.0
 42
0.4142135330896185
  0
VERTEX
  5
30D
  8
DRAFT
 10
-714.277293411962
 20
-182.0255497130977
 30
0.0
  0
VERTEX
  5
30E
  8
DRAFT
 10
-714.8033351948292
 20
-181.9795269675469
 30
0.0
 42
0.4142135777797076
  0
VERTEX
  5
30F
  8
DRAFT
 10
-714.8371898990895
 20
-182.0079344331536
 30
0.0
  0
VERTEX
  5
310
  8
DRAFT
 10
-714.9013772591719
 20
-182.7415989156519
 30
0.0
 42
1.000000000003354
  0
VERTEX
  5
311
  8
DRAFT
 10
-714.8615294712478
 20
-182.7450851453617
 30
0.0
  0
VERTEX
  5
312
  8
DRAFT
 10
-714.8488120410785
 20
-182.599724588225
 30
0.0
 42
-0.4142135183885992
  0
VERTEX
  5
313
  8
DRAFT
 10
-714.8149573387956
 20
-182.5713171272325
 30
0.0
  0
VERTEX
  5
314
  8
DRAFT
 10
-714.3686111234275
 20
-182.6103673834993
 30
0.0
 42
-0.4142135477628754
  0
VERTEX
  5
315
  8
DRAFT
 10
-714.3402036576244
 20
-182.6442220846397
 30
0.0
  0
VERTEX
  5
316
  8
DRAFT
 10
-714.3529210606795
 20
-182.7895826667129
 30
0.0
 42
1.000000000004893
  0
VERTEX
  5
317
  8
DRAFT
 10
-714.3130732727562
 20
-182.7930688964229
 30
0.0
  0
SEQEND
  5
318
  8
DRAFT
  0
POLYLINE
  5
319
  8
DRAFT
 66
     1
 10
0.0
 20
0.0
 30
0.0
  0
VERTEX
  5
31A
  8
DRAFT
 10
-716.7561582053668
 20
-181.7630986799847
 30
0.0
  0
VERTEX
  5
31B
  8
DRAFT
 10
-716.7809455671772
 20
-181.7609324385417
 30
0.0
 42
0.1594425821312952
  0
VERTEX
  5
31C
  8
DRAFT
 10
-716.8566599006108
 20
-181.7785847443119
 30
0.0
 42
0.094824233291773
  0
VERTEX
  5
31D
  8
DRAFT
 10
-716.9912919472406
 20
-181.8993073221373
 30
0.0
 42
0.2963770830167283
  0
VERTEX
  5
31E
  8
DRAFT
 10
-717.0252151263146
 20
-182.2874755151911
 30
0.0
 42
0.0931204833716272
  0
VERTEX
  5
31F
  8
DRAFT
 10
-716.9135646848507
 20
-182.4297214560738
 30
0.0
 42
0.1594425821293455
  0
VERTEX
  5
320
  8
DRAFT
 10
-716.8420601164617
 20
-182.4602396618816
 30
0.0
  0
VERTEX
  5
321
  8
DRAFT
 10
-716.8172727546898
 20
-182.4624059037683
 30
0.0
  0
SEQEND
  5
322
  8
DRAFT
  0
POLYLINE
  5
323
  8
DRAFT
 66
     1
 10
0.0
 20
0.0
 30
0.0
 70
     1
  0
VERTEX
  5
324
  8
DRAFT
 10
-702.8697975697164
 20
-181.9491644301892
 30
0.0
 42
-0.4142135623635731
  0
VERTEX
  5
325
  8
DRAFT
 10
-702.8413915208668
 20
-181.9153085386968
 30
0.0
  0
VERTEX
  5
326
  8
DRAFT
 10
-702.4239429263394
 20
-181.878768894431
 30
0.0
 42
-0.4142135623784679
  0
VERTEX
  5
327
  8
DRAFT
 10
-702.3900870348467
 20
-181.9071749432808
 30
0.0
  0
VERTEX
  5
328
  8
DRAFT
 10
-702.342635575474
 20
-182.4492859961202
 30
0.0
 42
-0.4142135623756389
  0
VERTEX
  5
329
  8
DRAFT
 10
-702.3710416243239
 20
-182.4831418876125
 30
0.0
  0
VERTEX
  5
32A
  8
DRAFT
 10
-702.7884902188515
 20
-182.5196815318786
 30
0.0
 42
-0.4142135623557642
  0
VERTEX
  5
32B
  8
DRAFT
 10
-702.8223461103435
 20
-182.4912754830284
 30
0.0
  0
SEQEND
  5
32C
  8
DRAFT
  0
POLYLINE
  5
32D
  8
DRAFT
 66
     1
 10
0.0
 20
0.0
 30
0.0
  0
VERTEX
  5
32E
  8
DRAFT
 10
-703.9895184751939
 20
-182.6165772315852
 30
0.0
  0
VERTEX
  5
32F
  8
DRAFT
 10
-703.9740774553137
 20
-182.7930688964239
 30
0.0
  0
VERTEX
  5
330
  8
DRAFT
 10
-704.0382647803486
 20
-182.0594044141025
 30
0.0
 42
-0.4142135330832316
  0
VERTEX
  5
331
  8
DRAFT
 10
-704.0098573161072
 20
-182.0255497130987
 30
0.0
  0
VERTEX
  5
332
  8
DRAFT
 10
-703.48381553324
 20
-181.9795269675479
 30
0.0
 42
-0.4142135777852333
  0
VERTEX
  5
333
  8
DRAFT
 10
-703.4499608289796
 20
-182.0079344331548
 30
0.0
  0
VERTEX
  5
334
  8
DRAFT
 10
-703.3857734688974
 20
-182.741598915653
 30
0.0
 42
-0.9999999999868873
  0
VERTEX
  5
335
  8
DRAFT
 10
-703.4256212568215
 20
-182.7450851453628
 30
0.0
  0
VERTEX
  5
336
  8
DRAFT
 10
-703.4383386869907
 20
-182.5997245882262
 30
0.0
 42
0.4142135183875378
  0
VERTEX
  5
337
  8
DRAFT
 10
-703.4721933892737
 20
-182.5713171272337
 30
0.0
  0
VERTEX
  5
338
  8
DRAFT
 10
-703.9185396046418
 20
-182.6103673835003
 30
0.0
 42
0.4142135477750832
  0
VERTEX
  5
339
  8
DRAFT
 10
-703.9469470704449
 20
-182.6442220846407
 30
0.0
  0
VERTEX
  5
33A
  8
DRAFT
 10
-703.9342296673898
 20
-182.7895826667139
 30
0.0
 42
-1.000000000009786
  0
VERTEX
  5
33B
  8
DRAFT
 10
-703.9740774553132
 20
-182.7930688964239
 30
0.0
  0
SEQEND
  5
33C
  8
DRAFT
  0
POLYLINE
  5
33D
  8
DRAFT
 66
     1
 10
0.0
 20
0.0
 30
0.0
  0
VERTEX
  5
33E
  8
DRAFT
 10
-701.5309925227023
 20
-181.7630986799863
 30
0.0
  0
VERTEX
  5
33F
  8
DRAFT
 10
-701.5062051608916
 20
-181.7609324385433
 30
0.0
 42
-0.1594425821298006
  0
VERTEX
  5
340
  8
DRAFT
 10
-701.4304908274586
 20
-181.7785847443135
 30
0.0
 42
-0.0948242332929765
  0
VERTEX
  5
341
  8
DRAFT
 10
-701.2958587808284
 20
-181.8993073221389
 30
0.0
 42
-0.29637708301651
  0
VERTEX
  5
342
  8
DRAFT
 10
-701.2619356017548
 20
-182.2874755151927
 30
0.0
 42
-0.0931204833707916
  0
VERTEX
  5
343
  8
DRAFT
 10
-701.3735860432184
 20
-182.4297214560753
 30
0.0
 42
-0.1594425821268084
  0
VERTEX
  5
344
  8
DRAFT
 10
-701.4450906116076
 20
-182.4602396618832
 30
0.0
  0
VERTEX
  5
345
  8
DRAFT
 10
-701.4698779733794
 20
-182.4624059037698
 30
0.0
  0
SEQEND
  5
346
  8
DRAFT
  0
POLYLINE
  5
347
  8
DRAFT
 66
     1
 10
0.0
 20
0.0
 30
0.0
  0
VERTEX
  5
348
  8
DRAFT
 10
-705.2953282507759
 20
-190.8415216775528
 30
0.0
 42
-0.6310043784623964
  0
VERTEX
  5
349
  8
DRAFT
 10
-705.1808297058649
 20
-191.0359693935034
 30
0.0
  0
VERTEX
  5
34A
  8
DRAFT
 10
-705.2548561237141
 20
-191.1456646148137
 30
0.0
 42
-0.2261705713996175
  0
VERTEX
  5
34B
  8
DRAFT
 10
-705.3012047149358
 20
-191.1729645493013
 30
0.0
  0
VERTEX
  5
34C
  8
DRAFT
 10
-705.3200010733964
 20
-191.174612402612
 30
0.0
 42
-0.1609716664696135
  0
VERTEX
  5
34D
  8
DRAFT
 10
-705.358178786074
 20
-191.1656024436288
 30
0.0
  0
VERTEX
  5
34E
  8
DRAFT
 10
-705.367318784454
 20
-191.1599865209517
 30
0.0
 42
2.02284802656396
  0
VERTEX
  5
34F
  8
DRAFT
 10
-705.3581596864973
 20
-191.2595193614074
 30
0.0
  0
VERTEX
  5
350
  8
DRAFT
 10
-705.3504040277165
 20
-191.2525654582548
 30
0.0
 42
-0.162277662474449
  0
VERTEX
  5
351
  8
DRAFT
 10
-705.3141389830836
 20
-191.2368382023022
 30
0.0
  0
VERTEX
  5
352
  8
DRAFT
 10
-705.2692736859783
 20
-191.2329049176434
 30
0.0
 42
0.2214558604943132
  0
VERTEX
  5
353
  8
DRAFT
 10
-705.223561291692
 20
-191.2065297065439
 30
0.0
  0
VERTEX
  5
354
  8
DRAFT
 10
-704.9559847356777
 20
-190.8249866337429
 30
0.0
 42
-0.173823154937128
  0
VERTEX
  5
355
  8
DRAFT
 10
-704.8870791421311
 20
-190.7763135589445
 30
0.0
  0
SEQEND
  5
356
  8
DRAFT
  0
POLYLINE
  5
357
  8
DRAFT
 66
     1
 10
0.0
 20
0.0
 30
0.0
  0
VERTEX
  5
358
  8
DRAFT
 10
-706.2868735858108
 20
-190.9281917993441
 30
0.0
 42
-0.6310043784643925
  0
VERTEX
  5
359
  8
DRAFT
 10
-706.1723750408997
 20
-191.1226395152948
 30
0.0
  0
VERTEX
  5
35A
  8
DRAFT
 10
-706.2465780357386
 20
-191.2325963952477
 30
0.0
 42
-0.2261705714021012
  0
VERTEX
  5
35B
  8
DRAFT
 10
-706.2929266269603
 20
-191.259896329735
 30
0.0
  0
VERTEX
  5
35C
  8
DRAFT
 10
-706.3117229854207
 20
-191.261544183046
 30
0.0
 42
-0.1609716664676121
  0
VERTEX
  5
35D
  8
DRAFT
 10
-706.3499006980984
 20
-191.2525342240628
 30
0.0
  0
VERTEX
  5
35E
  8
DRAFT
 10
-706.359040696478
 20
-191.2469183013856
 30
0.0
 42
2.022848026571473
  0
VERTEX
  5
35F
  8
DRAFT
 10
-706.3498815985216
 20
-191.3464511418412
 30
0.0
  0
VERTEX
  5
360
  8
DRAFT
 10
-706.342125939741
 20
-191.3394972386887
 30
0.0
 42
-0.1622776624718373
  0
VERTEX
  5
361
  8
DRAFT
 10
-706.3058608951079
 20
-191.3237699827361
 30
0.0
  0
VERTEX
  5
362
  8
DRAFT
 10
-706.2609955980029
 20
-191.3198366980774
 30
0.0
 42
0.2214558605008136
  0
VERTEX
  5
363
  8
DRAFT
 10
-706.2152832037166
 20
-191.2934614869779
 30
0.0
  0
VERTEX
  5
364
  8
DRAFT
 10
-705.9711560730574
 20
-190.9453542686114
 30
0.0
 42
-0.2215234308518954
  0
VERTEX
  5
365
  8
DRAFT
 10
-705.8796992019134
 20
-190.8926010379381
 30
0.0
  0
SEQEND
  5
366
  8
DRAFT
  0
POLYLINE
  5
367
  8
DRAFT
 66
     1
 10
0.0
 20
0.0
 30
0.0
 70
     1
  0
VERTEX
  5
368
  8
DRAFT
 10
-704.3405632119513
 20
-191.7945531481677
 30
0.0
 42
-0.4142135623611803
  0
VERTEX
  5
369
  8
DRAFT
 10
-704.368969260801
 20
-191.8284090396601
 30
0.0
  0
VERTEX
  5
36A
  8
DRAFT
 10
-704.7864178553286
 20
-191.864948683926
 30
0.0
 42
-0.4142135623845305
  0
VERTEX
  5
36B
  8
DRAFT
 10
-704.8202737468213
 20
-191.8365426350761
 30
0.0
  0
VERTEX
  5
36C
  8
DRAFT
 10
-704.867725206194
 20
-191.2944315822367
 30
0.0
 42
-0.4142135623732461
  0
VERTEX
  5
36D
  8
DRAFT
 10
-704.8393191573441
 20
-191.2605756907444
 30
0.0
  0
VERTEX
  5
36E
  8
DRAFT
 10
-704.4218705628165
 20
-191.2240360464783
 30
0.0
 42
-0.4142135623505604
  0
VERTEX
  5
36F
  8
DRAFT
 10
-704.3880146713245
 20
-191.2524420953285
 30
0.0
  0
SEQEND
  5
370
  8
DRAFT
  0
POLYLINE
  5
371
  8
DRAFT
 66
     1
 10
0.0
 20
0.0
 30
0.0
  0
VERTEX
  5
372
  8
DRAFT
 10
-703.2208423064741
 20
-191.1271403467715
 30
0.0
  0
VERTEX
  5
373
  8
DRAFT
 10
-703.2362833263543
 20
-190.9506486819327
 30
0.0
  0
VERTEX
  5
374
  8
DRAFT
 10
-703.1720960013193
 20
-191.6843131642541
 30
0.0
 42
-0.4142135330848328
  0
VERTEX
  5
375
  8
DRAFT
 10
-703.2005034655607
 20
-191.7181678652578
 30
0.0
  0
VERTEX
  5
376
  8
DRAFT
 10
-703.7265452484278
 20
-191.7641906108088
 30
0.0
 42
-0.4142135777810483
  0
VERTEX
  5
377
  8
DRAFT
 10
-703.7603999526882
 20
-191.735783145202
 30
0.0
  0
VERTEX
  5
378
  8
DRAFT
 10
-703.8245873127706
 20
-191.0021186627037
 30
0.0
 42
-0.9999999999992301
  0
VERTEX
  5
379
  8
DRAFT
 10
-703.7847395248463
 20
-190.9986324329939
 30
0.0
  0
VERTEX
  5
37A
  8
DRAFT
 10
-703.7720220946773
 20
-191.1439929901306
 30
0.0
 42
0.4142135183966868
  0
VERTEX
  5
37B
  8
DRAFT
 10
-703.7381673923943
 20
-191.1724004511227
 30
0.0
  0
VERTEX
  5
37C
  8
DRAFT
 10
-703.2918211770262
 20
-191.1333501948563
 30
0.0
 42
0.4142135477709014
  0
VERTEX
  5
37D
  8
DRAFT
 10
-703.2634137112233
 20
-191.0994954937159
 30
0.0
  0
VERTEX
  5
37E
  8
DRAFT
 10
-703.2761311142782
 20
-190.9541349116427
 30
0.0
 42
-1.000000000015696
  0
VERTEX
  5
37F
  8
DRAFT
 10
-703.2362833263549
 20
-190.9506486819328
 30
0.0
  0
SEQEND
  5
380
  8
DRAFT
  0
POLYLINE
  5
381
  8
DRAFT
 66
     1
 10
0.0
 20
0.0
 30
0.0
  0
VERTEX
  5
382
  8
DRAFT
 10
-705.6793682589655
 20
-191.9806188983709
 30
0.0
  0
VERTEX
  5
383
  8
DRAFT
 10
-705.704155620776
 20
-191.9827851398141
 30
0.0
 42
-0.1594425821319214
  0
VERTEX
  5
384
  8
DRAFT
 10
-705.7798699542094
 20
-191.9651328340436
 30
0.0
 42
-0.094824233292026
  0
VERTEX
  5
385
  8
DRAFT
 10
-705.9145020008393
 20
-191.8444102562183
 30
0.0
 42
-0.296377083015459
  0
VERTEX
  5
386
  8
DRAFT
 10
-705.9484251799132
 20
-191.4562420631646
 30
0.0
 42
-0.0931204833715085
  0
VERTEX
  5
387
  8
DRAFT
 10
-705.8367747384494
 20
-191.3139961222819
 30
0.0
 42
-0.1594425821260482
  0
VERTEX
  5
388
  8
DRAFT
 10
-705.7652701700604
 20
-191.2834779164741
 30
0.0
  0
VERTEX
  5
389
  8
DRAFT
 10
-705.7404828082886
 20
-191.2813116745874
 30
0.0
  0
SEQEND
  5
38A
  8
DRAFT
  0
POLYLINE
  5
38B
  8
DRAFT
 66
     1
 10
0.0
 20
0.0
 30
0.0
 70
     1
  0
VERTEX
  5
38C
  8
DRAFT
 10
-691.7930076233151
 20
-191.7945531481664
 30
0.0
 42
0.4142135623668068
  0
VERTEX
  5
38D
  8
DRAFT
 10
-691.7646015744654
 20
-191.8284090396587
 30
0.0
  0
VERTEX
  5
38E
  8
DRAFT
 10
-691.3471529799381
 20
-191.8649486839248
 30
0.0
 42
0.4142135623810972
  0
VERTEX
  5
38F
  8
DRAFT
 10
-691.3132970884456
 20
-191.8365426350748
 30
0.0
  0
VERTEX
  5
390
  8
DRAFT
 10
-691.2658456290727
 20
-191.2944315822354
 30
0.0
 42
0.4142135623744549
  0
VERTEX
  5
391
  8
DRAFT
 10
-691.2942516779226
 20
-191.2605756907432
 30
0.0
  0
VERTEX
  5
392
  8
DRAFT
 10
-691.7117002724502
 20
-191.224036046477
 30
0.0
 42
0.4142135623568175
  0
VERTEX
  5
393
  8
DRAFT
 10
-691.7455561639424
 20
-191.2524420953273
 30
0.0
  0
SEQEND
  5
394
  8
DRAFT
  0
POLYLINE
  5
395
  8
DRAFT
 66
     1
 10
0.0
 20
0.0
 30
0.0
  0
VERTEX
  5
396
  8
DRAFT
 10
-692.9127285287926
 20
-191.1271403467705
 30
0.0
  0
VERTEX
  5
397
  8
DRAFT
 10
-692.8972875089124
 20
-190.9506486819317
 30
0.0
  0
VERTEX
  5
398
  8
DRAFT
 10
-692.9614748339472
 20
-191.6843131642531
 30
0.0
 42
0.414213533074522
  0
VERTEX
  5
399
  8
DRAFT
 10
-692.9330673697059
 20
-191.7181678652569
 30
0.0
  0
VERTEX
  5
39A
  8
DRAFT
 10
-692.4070255868387
 20
-191.7641906108078
 30
0.0
 42
0.4142135777796611
  0
VERTEX
  5
39B
  8
DRAFT
 10
-692.3731708825785
 20
-191.7357831452009
 30
0.0
  0
VERTEX
  5
39C
  8
DRAFT
 10
-692.3089835224961
 20
-191.0021186627026
 30
0.0
 42
0.9999999999891965
  0
VERTEX
  5
39D
  8
DRAFT
 10
-692.3488313104205
 20
-190.9986324329928
 30
0.0
  0
VERTEX
  5
39E
  8
DRAFT
 10
-692.3615487405895
 20
-191.1439929901295
 30
0.0
 42
-0.4142135183885992
  0
VERTEX
  5
39F
  8
DRAFT
 10
-692.3954034428724
 20
-191.172400451122
 30
0.0
  0
VERTEX
  5
3A0
  8
DRAFT
 10
-692.8417496582405
 20
-191.1333501948553
 30
0.0
 42
-0.4142135477727489
  0
VERTEX
  5
3A1
  8
DRAFT
 10
-692.8701571240437
 20
-191.0994954937149
 30
0.0
  0
VERTEX
  5
3A2
  8
DRAFT
 10
-692.8574397209885
 20
-190.9541349116417
 30
0.0
 42
1.00000000000077
  0
VERTEX
  5
3A3
  8
DRAFT
 10
-692.8972875089122
 20
-190.9506486819317
 30
0.0
  0
SEQEND
  5
3A4
  8
DRAFT
  0
POLYLINE
  5
3A5
  8
DRAFT
 66
     1
 10
0.0
 20
0.0
 30
0.0
  0
VERTEX
  5
3A6
  8
DRAFT
 10
-690.454202576301
 20
-191.9806188983693
 30
0.0
  0
VERTEX
  5
3A7
  8
DRAFT
 10
-690.4294152144902
 20
-191.9827851398123
 30
0.0
 42
0.1594425821293694
  0
VERTEX
  5
3A8
  8
DRAFT
 10
-690.3537008810574
 20
-191.965132834042
 30
0.0
 42
0.0948242332916618
  0
VERTEX
  5
3A9
  8
DRAFT
 10
-690.2190688344272
 20
-191.8444102562167
 30
0.0
 42
0.2963770830165718
  0
VERTEX
  5
3AA
  8
DRAFT
 10
-690.1851456553535
 20
-191.456242063163
 30
0.0
 42
0.0931204833709099
  0
VERTEX
  5
3AB
  8
DRAFT
 10
-690.2967960968173
 20
-191.3139961222802
 30
0.0
 42
0.1594425821260518
  0
VERTEX
  5
3AC
  8
DRAFT
 10
-690.3683006652063
 20
-191.2834779164726
 30
0.0
  0
VERTEX
  5
3AD
  8
DRAFT
 10
-690.3930880269781
 20
-191.2813116745858
 30
0.0
  0
SEQEND
  5
3AE
  8
DRAFT
  0
POLYLINE
  5
3AF
  8
DRAFT
 66
     1
 10
0.0
 20
0.0
 30
0.0
  0
VERTEX
  5
3B0
  8
DRAFT
 10
-683.3762725660752
 20
-188.7380460384378
 30
0.0
  0
VERTEX
  5
3B1
  8
DRAFT
 10
-683.3741063246321
 20
-188.7628334002484
 30
0.0
 42
-0.1594425821289999
  0
VERTEX
  5
3B2
  8
DRAFT
 10
-683.3917586304023
 20
-188.8385477336814
 30
0.0
 42
-0.0948242332906146
  0
VERTEX
  5
3B3
  8
DRAFT
 10
-683.5124812082277
 20
-188.9731797803115
 30
0.0
 42
-0.2963770830172858
  0
VERTEX
  5
3B4
  8
DRAFT
 10
-683.9006494012815
 20
-189.0071029593855
 30
0.0
 42
-0.0931204833726816
  0
VERTEX
  5
3B5
  8
DRAFT
 10
-684.0428953421639
 20
-188.8954525179217
 30
0.0
 42
-0.1594425821346947
  0
VERTEX
  5
3B6
  8
DRAFT
 10
-684.073413547972
 20
-188.8239479495326
 30
0.0
  0
VERTEX
  5
3B7
  8
DRAFT
 10
-684.0755797898587
 20
-188.7991605877608
 30
0.0
  0
SEQEND
  5
3B8
  8
DRAFT
  0
POLYLINE
  5
3B9
  8
DRAFT
 66
     1
 10
0.0
 20
0.0
 30
0.0
  0
VERTEX
  5
3BA
  8
DRAFT
 10
-684.2297511176745
 20
-186.2795200859464
 30
0.0
  0
VERTEX
  5
3BB
  8
DRAFT
 10
-684.4062427825132
 20
-186.2949611058266
 30
0.0
  0
VERTEX
  5
3BC
  8
DRAFT
 10
-683.6725783001918
 20
-186.2307737807915
 30
0.0
 42
-0.4142135330881398
  0
VERTEX
  5
3BD
  8
DRAFT
 10
-683.638723599188
 20
-186.259181245033
 30
0.0
  0
VERTEX
  5
3BE
  8
DRAFT
 10
-683.5927008536371
 20
-186.7852230279
 30
0.0
 42
-0.4142135777821432
  0
VERTEX
  5
3BF
  8
DRAFT
 10
-683.621108319244
 20
-186.8190777321605
 30
0.0
  0
VERTEX
  5
3C0
  8
DRAFT
 10
-684.3547728017421
 20
-186.883265092243
 30
0.0
 42
-1.00000000000591
  0
VERTEX
  5
3C1
  8
DRAFT
 10
-684.3582590314521
 20
-186.8434173043187
 30
0.0
  0
VERTEX
  5
3C2
  8
DRAFT
 10
-684.2128984743152
 20
-186.8306998741496
 30
0.0
 42
0.4142135183820493
  0
VERTEX
  5
3C3
  8
DRAFT
 10
-684.1844910133232
 20
-186.7968451718666
 30
0.0
  0
VERTEX
  5
3C4
  8
DRAFT
 10
-684.2235412695896
 20
-186.3504989564985
 30
0.0
 42
0.4142135477710328
  0
VERTEX
  5
3C5
  8
DRAFT
 10
-684.25739597073
 20
-186.3220914906955
 30
0.0
  0
VERTEX
  5
3C6
  8
DRAFT
 10
-684.4027565528032
 20
-186.3348088937506
 30
0.0
 42
-1.000000000019819
  0
VERTEX
  5
3C7
  8
DRAFT
 10
-684.4062427825131
 20
-186.2949611058266
 30
0.0
  0
SEQEND
  5
3C8
  8
DRAFT
  0
POLYLINE
  5
3C9
  8
DRAFT
 66
     1
 10
0.0
 20
0.0
 30
0.0
 70
     1
  0
VERTEX
  5
3CA
  8
DRAFT
 10
-683.5623383162783
 20
-187.3992409914236
 30
0.0
 42
-0.4142135623668068
  0
VERTEX
  5
3CB
  8
DRAFT
 10
-683.5284824247861
 20
-187.4276470402733
 30
0.0
  0
VERTEX
  5
3CC
  8
DRAFT
 10
-683.4919427805198
 20
-187.8450956348007
 30
0.0
 42
-0.4142135623773942
  0
VERTEX
  5
3CD
  8
DRAFT
 10
-683.5203488293698
 20
-187.8789515262932
 30
0.0
  0
VERTEX
  5
3CE
  8
DRAFT
 10
-684.0624598822092
 20
-187.9264029856662
 30
0.0
 42
-0.4142135623802179
  0
VERTEX
  5
3CF
  8
DRAFT
 10
-684.0963157737017
 20
-187.8979969368163
 30
0.0
  0
VERTEX
  5
3D0
  8
DRAFT
 10
-684.1328554179677
 20
-187.4805483422887
 30
0.0
 42
-0.4142135623599085
  0
VERTEX
  5
3D1
  8
DRAFT
 10
-684.1044493691174
 20
-187.4466924507965
 30
0.0
  0
SEQEND
  5
3D2
  8
DRAFT
  0
POLYLINE
  5
3D3
  8
DRAFT
 66
     1
 10
0.0
 20
0.0
 30
0.0
  0
VERTEX
  5
3D4
  8
DRAFT
 10
-683.3762725660766
 20
-173.5128803557733
 30
0.0
  0
VERTEX
  5
3D5
  8
DRAFT
 10
-683.3741063246335
 20
-173.4880929939627
 30
0.0
 42
0.1594425821273429
  0
VERTEX
  5
3D6
  8
DRAFT
 10
-683.391758630404
 20
-173.4123786605295
 30
0.0
 42
0.0948242332939295
  0
VERTEX
  5
3D7
  8
DRAFT
 10
-683.5124812082294
 20
-173.2777466138994
 30
0.0
 42
0.2963770830165126
  0
VERTEX
  5
3D8
  8
DRAFT
 10
-683.900649401283
 20
-173.2438234348257
 30
0.0
 42
0.0931204833703331
  0
VERTEX
  5
3D9
  8
DRAFT
 10
-684.0428953421656
 20
-173.3554738762895
 30
0.0
 42
0.1594425821326501
  0
VERTEX
  5
3DA
  8
DRAFT
 10
-684.0734135479736
 20
-173.4269784446785
 30
0.0
  0
VERTEX
  5
3DB
  8
DRAFT
 10
-684.0755797898602
 20
-173.4517658064504
 30
0.0
  0
SEQEND
  5
3DC
  8
DRAFT
  0
POLYLINE
  5
3DD
  8
DRAFT
 66
     1
 10
0.0
 20
0.0
 30
0.0
  0
VERTEX
  5
3DE
  8
DRAFT
 10
-684.2297511176755
 20
-175.971406308265
 30
0.0
  0
VERTEX
  5
3DF
  8
DRAFT
 10
-684.4062427825143
 20
-175.9559652883848
 30
0.0
  0
VERTEX
  5
3E0
  8
DRAFT
 10
-683.6725783001929
 20
-176.0201526134196
 30
0.0
 42
0.4142135330866974
  0
VERTEX
  5
3E1
  8
DRAFT
 10
-683.6387235991891
 20
-175.9917451491781
 30
0.0
  0
VERTEX
  5
3E2
  8
DRAFT
 10
-683.5927008536381
 20
-175.4657033663109
 30
0.0
 42
0.4142135777937853
  0
VERTEX
  5
3E3
  8
DRAFT
 10
-683.621108319245
 20
-175.4318486620507
 30
0.0
  0
VERTEX
  5
3E4
  8
DRAFT
 10
-684.3547728017433
 20
-175.3676613019684
 30
0.0
 42
1.00000000000591
  0
VERTEX
  5
3E5
  8
DRAFT
 10
-684.358259031453
 20
-175.4075090898925
 30
0.0
  0
VERTEX
  5
3E6
  8
DRAFT
 10
-684.2128984743164
 20
-175.4202265200617
 30
0.0
 42
-0.4142135183840311
  0
VERTEX
  5
3E7
  8
DRAFT
 10
-684.1844910133241
 20
-175.4540812223447
 30
0.0
  0
VERTEX
  5
3E8
  8
DRAFT
 10
-684.2235412695906
 20
-175.9004274377127
 30
0.0
 42
-0.4142135477634142
  0
VERTEX
  5
3E9
  8
DRAFT
 10
-684.257395970731
 20
-175.928834903516
 30
0.0
  0
VERTEX
  5
3EA
  8
DRAFT
 10
-684.4027565528042
 20
-175.9161175004608
 30
0.0
 42
0.9999999999962751
  0
VERTEX
  5
3EB
  8
DRAFT
 10
-684.4062427825143
 20
-175.9559652883844
 30
0.0
  0
SEQEND
  5
3EC
  8
DRAFT
  0
POLYLINE
  5
3ED
  8
DRAFT
 66
     1
 10
0.0
 20
0.0
 30
0.0
 70
     1
  0
VERTEX
  5
3EE
  8
DRAFT
 10
-683.5623383162795
 20
-174.8516854027874
 30
0.0
 42
0.4142135623673089
  0
VERTEX
  5
3EF
  8
DRAFT
 10
-683.5284824247874
 20
-174.8232793539376
 30
0.0
  0
VERTEX
  5
3F0
  8
DRAFT
 10
-683.4919427805213
 20
-174.4058307594102
 30
0.0
 42
0.4142135623754459
  0
VERTEX
  5
3F1
  8
DRAFT
 10
-683.5203488293714
 20
-174.3719748679175
 30
0.0
  0
VERTEX
  5
3F2
  8
DRAFT
 10
-684.0624598822106
 20
-174.3245234085449
 30
0.0
 42
0.4142135623810972
  0
VERTEX
  5
3F3
  8
DRAFT
 10
-684.096315773703
 20
-174.3529294573948
 30
0.0
  0
VERTEX
  5
3F4
  8
DRAFT
 10
-684.1328554179689
 20
-174.7703780519225
 30
0.0
 42
0.4142135623557394
  0
VERTEX
  5
3F5
  8
DRAFT
 10
-684.1044493691187
 20
-174.8042339434146
 30
0.0
  0
SEQEND
  5
3F6
  8
DRAFT
  0
POLYLINE
  5
3F7
  8
DRAFT
 66
     1
 10
0.0
 20
0.0
 30
0.0
  0
VERTEX
  5
3F8
  8
DRAFT
 10
-686.2668107545447
 20
-186.6638581703062
 30
0.0
 42
-0.336951338847043
  0
VERTEX
  5
3F9
  8
DRAFT
 10
-684.5805779055016
 20
-187.945756921603
 30
0.0
 42
0.1738231549337085
  0
VERTEX
  5
3FA
  8
DRAFT
 10
-684.5319048307032
 20
-188.0146625151498
 30
0.0
  0
VERTEX
  5
3FB
  8
DRAFT
 10
-684.1503617579021
 20
-188.2822390711642
 30
0.0
 42
-0.2214558604973016
  0
VERTEX
  5
3FC
  8
DRAFT
 10
-684.1239865468028
 20
-188.3279514654507
 30
0.0
  0
VERTEX
  5
3FD
  8
DRAFT
 10
-684.1200532621439
 20
-188.3728167625559
 30
0.0
 42
0.1622776624671442
  0
VERTEX
  5
3FE
  8
DRAFT
 10
-684.1043260061912
 20
-188.4090818071888
 30
0.0
  0
VERTEX
  5
3FF
  8
DRAFT
 10
-684.0973721030385
 20
-188.4168374659695
 30
0.0
 42
-1.98925326513361
  0
VERTEX
  5
400
  8
DRAFT
 10
-684.1969049434942
 20
-188.4259965639261
 30
0.0
  0
VERTEX
  5
401
  8
DRAFT
 10
-684.1912890208172
 20
-188.4168565655463
 30
0.0
 42
0.1609716664698627
  0
VERTEX
  5
402
  8
DRAFT
 10
-684.182279061834
 20
-188.3786788528685
 30
0.0
  0
VERTEX
  5
403
  8
DRAFT
 10
-684.1839269151448
 20
-188.3598824944081
 30
0.0
 42
0.2261705714004632
  0
VERTEX
  5
404
  8
DRAFT
 10
-684.2112268496325
 20
-188.3135339031862
 30
0.0
  0
VERTEX
  5
405
  8
DRAFT
 10
-684.3209220709427
 20
-188.2395074853374
 30
0.0
 42
0.6310043784638408
  0
VERTEX
  5
406
  8
DRAFT
 10
-684.5153697868934
 20
-188.3540060302482
 30
0.0
  0
VERTEX
  5
407
  8
DRAFT
 10
-684.4642904265079
 20
-188.9383769813857
 30
0.0
 42
0.2215234308509535
  0
VERTEX
  5
408
  8
DRAFT
 10
-684.4115371958346
 20
-189.0298338525297
 30
0.0
  0
VERTEX
  5
409
  8
DRAFT
 10
-684.0634299774682
 20
-189.2739609831888
 30
0.0
 42
-0.2214558605029477
  0
VERTEX
  5
40A
  8
DRAFT
 10
-684.0370547663689
 20
-189.3196733774751
 30
0.0
  0
VERTEX
  5
40B
  8
DRAFT
 10
-684.03312148171
 20
-189.3645386745803
 30
0.0
 42
0.1622776624674768
  0
VERTEX
  5
40C
  8
DRAFT
 10
-684.0173942257571
 20
-189.4008037192132
 30
0.0
  0
VERTEX
  5
40D
  8
DRAFT
 10
-684.0104403226047
 20
-189.4085593779938
 30
0.0
 42
-1.989253265137174
  0
VERTEX
  5
40E
  8
DRAFT
 10
-684.1099731630601
 20
-189.4177184759507
 30
0.0
  0
VERTEX
  5
40F
  8
DRAFT
 10
-684.1043572403834
 20
-189.4085784775706
 30
0.0
 42
0.1609716664688406
  0
VERTEX
  5
410
  8
DRAFT
 10
-684.0953472814001
 20
-189.3704007648932
 30
0.0
  0
VERTEX
  5
411
  8
DRAFT
 10
-684.0969951347108
 20
-189.3516044064325
 30
0.0
 42
0.2261705714053812
  0
VERTEX
  5
412
  8
DRAFT
 10
-684.1242950691983
 20
-189.3052558152109
 30
0.0
  0
VERTEX
  5
413
  8
DRAFT
 10
-684.2342519491511
 20
-189.2310528203717
 30
0.0
 42
0.6310043784621459
  0
VERTEX
  5
414
  8
DRAFT
 10
-684.4286996651017
 20
-189.3455513652829
 30
0.0
  0
VERTEX
  5
415
  8
DRAFT
 10
-684.4062565029586
 20
-189.6023112759246
 30
0.0
 42
0.4142489508364056
  0
VERTEX
  5
416
  8
DRAFT
 10
-683.9999818570044
 20
-189.9432289981331
 30
0.0
  0
VERTEX
  5
417
  8
DRAFT
 10
-683.2524980676003
 20
-189.8778010816962
 30
0.0
 42
0.4141732650312894
  0
VERTEX
  5
418
  8
DRAFT
 10
-682.9116209860146
 20
-189.4715817822107
 30
0.0
  0
VERTEX
  5
419
  8
DRAFT
 10
-682.9340532806882
 20
-189.2148965968953
 30
0.0
 42
0.6310947064818319
  0
VERTEX
  5
41A
  8
DRAFT
 10
-683.1454387976448
 20
-189.135888568889
 30
0.0
  0
VERTEX
  5
41B
  8
DRAFT
 10
-683.2406723326267
 20
-189.2279115364588
 30
0.0
 42
0.2261705714044452
  0
VERTEX
  5
41C
  8
DRAFT
 10
-683.259504949128
 20
-189.2782981506233
 30
0.0
  0
VERTEX
  5
41D
  8
DRAFT
 10
-683.2578622393082
 20
-189.2970949592983
 30
0.0
 42
0.1609716664684615
  0
VERTEX
  5
41E
  8
DRAFT
 10
-683.2423566521592
 20
-189.333126804565
 30
0.0
  0
VERTEX
  5
41F
  8
DRAFT
 10
-683.2352382313699
 20
-189.3411521546113
 30
0.0
 42
-2.022848026600488
  0
VERTEX
  5
420
  8
DRAFT
 10
-683.3348487121638
 20
-189.3494242474929
 30
0.0
  0
VERTEX
  5
421
  8
DRAFT
 10
-683.329347951683
 20
-189.3405784210019
 30
0.0
 42
0.1622776624692941
  0
VERTEX
  5
422
  8
DRAFT
 10
-683.3201602086594
 20
-189.3021325444977
 30
0.0
  0
VERTEX
  5
423
  8
DRAFT
 10
-683.3240812162453
 20
-189.2572661727694
 30
0.0
 42
-0.221455860488385
  0
VERTEX
  5
424
  8
DRAFT
 10
-683.3060487341068
 20
-189.2076667338631
 30
0.0
  0
VERTEX
  5
425
  8
DRAFT
 10
-683.0057094636317
 20
-188.9068371584354
 30
0.0
 42
0.2214556596413934
  0
VERTEX
  5
426
  8
DRAFT
 10
-682.9696444910203
 20
-188.8076383759901
 30
0.0
  0
VERTEX
  5
427
  8
DRAFT
 10
-683.0207249255559
 20
-188.2231421844293
 30
0.0
 42
0.6310947064839884
  0
VERTEX
  5
428
  8
DRAFT
 10
-683.2321104425123
 20
-188.1441341564228
 30
0.0
  0
VERTEX
  5
429
  8
DRAFT
 10
-683.3273550505792
 20
-188.2361678237754
 30
0.0
 42
0.2261705714050498
  0
VERTEX
  5
42A
  8
DRAFT
 10
-683.3461876670804
 20
-188.2865544379397
 30
0.0
  0
VERTEX
  5
42B
  8
DRAFT
 10
-683.3445449572607
 20
-188.3053512466148
 30
0.0
 42
0.1609716664688697
  0
VERTEX
  5
42C
  8
DRAFT
 10
-683.3290393701114
 20
-188.3413830918815
 30
0.0
  0
VERTEX
  5
42D
  8
DRAFT
 10
-683.3219209493224
 20
-188.3494084419279
 30
0.0
 42
-2.022848026561131
  0
VERTEX
  5
42E
  8
DRAFT
 10
-683.4215314301158
 20
-188.3576805348094
 30
0.0
  0
VERTEX
  5
42F
  8
DRAFT
 10
-683.4160306696353
 20
-188.3488347083182
 30
0.0
 42
0.1622776624679663
  0
VERTEX
  5
430
  8
DRAFT
 10
-683.4068429266117
 20
-188.3103888318143
 30
0.0
  0
VERTEX
  5
431
  8
DRAFT
 10
-683.4107639341978
 20
-188.2655224600859
 30
0.0
 42
-0.221455860486055
  0
VERTEX
  5
432
  8
DRAFT
 10
-683.3927314520594
 20
-188.2159230211797
 30
0.0
  0
VERTEX
  5
433
  8
DRAFT
 10
-683.0923810765506
 20
-187.9150813681255
 30
0.0
 42
0.2214552436170844
  0
VERTEX
  5
434
  8
DRAFT
 10
-683.056316244037
 20
-187.8158827260069
 30
0.0
  0
VERTEX
  5
435
  8
DRAFT
 10
-683.4502770027144
 20
-183.3081284246282
 30
0.0
 42
-0.0436214061423999
  0
VERTEX
  5
436
  8
DRAFT
 10
-683.4502770027149
 20
-178.9427979695827
 30
0.0
  0
VERTEX
  5
437
  8
DRAFT
 10
-683.0563162440384
 20
-174.4350436682036
 30
0.0
 42
0.2214552436142408
  0
VERTEX
  5
438
  8
DRAFT
 10
-683.0923810765519
 20
-174.3358450260852
 30
0.0
  0
VERTEX
  5
439
  8
DRAFT
 10
-683.3927314520606
 20
-174.0350033730311
 30
0.0
 42
-0.2214558604901088
  0
VERTEX
  5
43A
  8
DRAFT
 10
-683.4107639341993
 20
-173.9854039341248
 30
0.0
  0
VERTEX
  5
43B
  8
DRAFT
 10
-683.4068429266132
 20
-173.9405375623964
 30
0.0
 42
0.1622776624618612
  0
VERTEX
  5
43C
  8
DRAFT
 10
-683.4160306696368
 20
-173.9020916858925
 30
0.0
  0
VERTEX
  5
43D
  8
DRAFT
 10
-683.4215314301173
 20
-173.8932458594014
 30
0.0
 42
-1.98925326511825
  0
VERTEX
  5
43E
  8
DRAFT
 10
-683.3219209493238
 20
-173.9015179522829
 30
0.0
  0
VERTEX
  5
43F
  8
DRAFT
 10
-683.329039370113
 20
-173.9095433023292
 30
0.0
 42
0.1609716664658015
  0
VERTEX
  5
440
  8
DRAFT
 10
-683.3445449572622
 20
-173.945575147596
 30
0.0
  0
VERTEX
  5
441
  8
DRAFT
 10
-683.3461876670818
 20
-173.964371956271
 30
0.0
 42
0.2261705714139192
  0
VERTEX
  5
442
  8
DRAFT
 10
-683.3273550505804
 20
-174.0147585704353
 30
0.0
  0
VERTEX
  5
443
  8
DRAFT
 10
-683.2321104425133
 20
-174.1067922377878
 30
0.0
 42
0.6310947064830651
  0
VERTEX
  5
444
  8
DRAFT
 10
-683.0207249255574
 20
-174.0277842097811
 30
0.0
  0
VERTEX
  5
445
  8
DRAFT
 10
-682.9696444910217
 20
-173.4432880182204
 30
0.0
 42
0.221455659641027
  0
VERTEX
  5
446
  8
DRAFT
 10
-683.0057094636334
 20
-173.3440892357753
 30
0.0
  0
VERTEX
  5
447
  8
DRAFT
 10
-683.3060487341083
 20
-173.0432596603476
 30
0.0
 42
-0.2214558604871896
  0
VERTEX
  5
448
  8
DRAFT
 10
-683.3240812162471
 20
-172.9936602214414
 30
0.0
  0
VERTEX
  5
449
  8
DRAFT
 10
-683.3201602086609
 20
-172.948793849713
 30
0.0
 42
0.1622776624609852
  0
VERTEX
  5
44A
  8
DRAFT
 10
-683.3293479516846
 20
-172.9103479732089
 30
0.0
  0
VERTEX
  5
44B
  8
DRAFT
 10
-683.3348487121651
 20
-172.9015021467177
 30
0.0
 42
-1.989253265096939
  0
VERTEX
  5
44C
  8
DRAFT
 10
-683.2352382313717
 20
-172.9097742395993
 30
0.0
  0
VERTEX
  5
44D
  8
DRAFT
 10
-683.2423566521608
 20
-172.9177995896458
 30
0.0
 42
0.1609716664663625
  0
VERTEX
  5
44E
  8
DRAFT
 10
-683.2578622393099
 20
-172.9538314349124
 30
0.0
  0
VERTEX
  5
44F
  8
DRAFT
 10
-683.2595049491296
 20
-172.9726282435875
 30
0.0
 42
0.2261705714049256
  0
VERTEX
  5
450
  8
DRAFT
 10
-683.2406723326284
 20
-173.0230148577519
 30
0.0
  0
VERTEX
  5
451
  8
DRAFT
 10
-683.1454387976461
 20
-173.1150378253214
 30
0.0
 42
0.6310947064883745
  0
VERTEX
  5
452
  8
DRAFT
 10
-682.93405328069
 20
-173.0360297973152
 30
0.0
  0
VERTEX
  5
453
  8
DRAFT
 10
-682.9116209860161
 20
-172.7793446119997
 30
0.0
 42
0.4141732650320957
  0
VERTEX
  5
454
  8
DRAFT
 10
-683.2524980676019
 20
-172.3731253125145
 30
0.0
  0
VERTEX
  5
455
  8
DRAFT
 10
-683.9999818570062
 20
-172.3076973960777
 30
0.0
 42
0.4142489508363876
  0
VERTEX
  5
456
  8
DRAFT
 10
-684.4062565029603
 20
-172.6486151182863
 30
0.0
  0
VERTEX
  5
457
  8
DRAFT
 10
-684.4286996651034
 20
-172.9053750289282
 30
0.0
 42
0.6310043784665442
  0
VERTEX
  5
458
  8
DRAFT
 10
-684.2342519491527
 20
-173.0198735738391
 30
0.0
  0
VERTEX
  5
459
  8
DRAFT
 10
-684.1242950692
 20
-172.9456705790004
 30
0.0
 42
0.2261705714038017
  0
VERTEX
  5
45A
  8
DRAFT
 10
-684.0969951347126
 20
-172.8993219877786
 30
0.0
  0
VERTEX
  5
45B
  8
DRAFT
 10
-684.0953472814017
 20
-172.8805256293182
 30
0.0
 42
0.1609716664628132
  0
VERTEX
  5
45C
  8
DRAFT
 10
-684.104357240385
 20
-172.8423479166408
 30
0.0
  0
VERTEX
  5
45D
  8
DRAFT
 10
-684.109973163062
 20
-172.833207918261
 30
0.0
 42
-2.022848026569544
  0
VERTEX
  5
45E
  8
DRAFT
 10
-684.0104403226063
 20
-172.8423670162175
 30
0.0
  0
VERTEX
  5
45F
  8
DRAFT
 10
-684.017394225759
 20
-172.8501226749979
 30
0.0
 42
0.1622776624672264
  0
VERTEX
  5
460
  8
DRAFT
 10
-684.0331214817116
 20
-172.886387719631
 30
0.0
  0
VERTEX
  5
461
  8
DRAFT
 10
-684.0370547663704
 20
-172.931253016736
 30
0.0
 42
-0.221455860496963
  0
VERTEX
  5
462
  8
DRAFT
 10
-684.0634299774698
 20
-172.9769654110223
 30
0.0
  0
VERTEX
  5
463
  8
DRAFT
 10
-684.4115371958363
 20
-173.2210925416816
 30
0.0
 42
0.2215234308494546
  0
VERTEX
  5
464
  8
DRAFT
 10
-684.4642904265095
 20
-173.3125494128257
 30
0.0
  0
VERTEX
  5
465
  8
DRAFT
 10
-684.5153697868948
 20
-173.8969203639631
 30
0.0
 42
0.631004378461207
  0
VERTEX
  5
466
  8
DRAFT
 10
-684.3209220709439
 20
-174.0114189088742
 30
0.0
  0
VERTEX
  5
467
  8
DRAFT
 10
-684.2112268496337
 20
-173.9373924910249
 30
0.0
 42
0.2261705714043218
  0
VERTEX
  5
468
  8
DRAFT
 10
-684.1839269151461
 20
-173.8910438998032
 30
0.0
  0
VERTEX
  5
469
  8
DRAFT
 10
-684.1822790618354
 20
-173.8722475413426
 30
0.0
 42
0.1609716664705684
  0
VERTEX
  5
46A
  8
DRAFT
 10
-684.1912890208185
 20
-173.834069828665
 30
0.0
  0
VERTEX
  5
46B
  8
DRAFT
 10
-684.1969049434957
 20
-173.8249298302849
 30
0.0
 42
-2.022848026543507
  0
VERTEX
  5
46C
  8
DRAFT
 10
-684.09737210304
 20
-173.8340889282417
 30
0.0
  0
VERTEX
  5
46D
  8
DRAFT
 10
-684.1043260061925
 20
-173.8418445870225
 30
0.0
 42
0.1622776624803422
  0
VERTEX
  5
46E
  8
DRAFT
 10
-684.1200532621452
 20
-173.8781096316554
 30
0.0
  0
VERTEX
  5
46F
  8
DRAFT
 10
-684.123986546804
 20
-173.9229749287607
 30
0.0
 42
-0.2214558604898036
  0
VERTEX
  5
470
  8
DRAFT
 10
-684.1503617579035
 20
-173.9686873230468
 30
0.0
  0
VERTEX
  5
471
  8
DRAFT
 10
-684.5319048307045
 20
-174.2362638790614
 30
0.0
 42
0.1738231549380677
  0
VERTEX
  5
472
  8
DRAFT
 10
-684.580577905503
 20
-174.3051694726079
 30
0.0
 42
-0.3369513388471608
  0
VERTEX
  5
473
  8
DRAFT
 10
-686.2668107545456
 20
-175.5870682239053
 30
0.0
  0
SEQEND
  5
474
  8
DRAFT
  0
POLYLINE
  5
475
  8
DRAFT
 66
     1
 10
0.0
 20
0.0
 30
0.0
  0
VERTEX
  5
476
  8
DRAFT
 10
-684.5805785135282
 20
-174.3051698758637
 30
0.0
 42
-0.3369511922794719
  0
VERTEX
  5
477
  8
DRAFT
 10
-686.2668107545458
 20
-175.5870682239053
 30
0.0
  0
VERTEX
  5
478
  8
DRAFT
 10
-690.7032545959911
 20
-175.5870682239054
 30
0.0
 42
0.3889014466556559
  0
VERTEX
  5
479
  8
DRAFT
 10
-692.4466073497927
 20
-177.1846832646316
 30
0.0
  0
VERTEX
  5
47A
  8
DRAFT
 10
-692.6002770027152
 20
-178.9427334939657
 30
0.0
 42
0.043621407061842
  0
VERTEX
  5
47B
  8
DRAFT
 10
-692.6002770027147
 20
-183.3081929002473
 30
0.0
  0
VERTEX
  5
47C
  8
DRAFT
 10
-692.446607349792
 20
-185.0662431295814
 30
0.0
 42
0.3889014466556033
  0
VERTEX
  5
47D
  8
DRAFT
 10
-690.7032545959903
 20
-186.6638581703074
 30
0.0
  0
VERTEX
  5
47E
  8
DRAFT
 10
-686.2668107545446
 20
-186.6638581703062
 30
0.0
 42
-0.3369511922796622
  0
VERTEX
  5
47F
  8
DRAFT
 10
-684.5805785135267
 20
-187.9457565183477
 30
0.0
  0
SEQEND
  5
480
  8
DRAFT
  0
POLYLINE
  5
481
  8
DRAFT
 66
     1
 10
0.0
 20
0.0
 30
0.0
 70
     1
  0
VERTEX
  5
482
  8
DRAFT
 10
-718.1335544272151
 20
-169.0777045711949
 30
0.0
  0
VERTEX
  5
483
  8
DRAFT
 10
-682.7004835610735
 20
-169.0777045711949
 30
0.0
  0
VERTEX
  5
484
  8
DRAFT
 10
-682.7004835610735
 20
-192.6997518152894
 30
0.0
  0
VERTEX
  5
485
  8
DRAFT
 10
-718.1335544272151
 20
-192.6997518152894
 30
0.0
  0
SEQEND
  5
486
  8
DRAFT
  0
ENDSEC
  0
EOF
